Oops, an error
Loading. Please wait.

Gracias Por Tu Adiós tab

22 views 1 this week
no commentswrite comment
1 2 3 4 5
3 more votes to show rating
add to favorites
×
Save as Personal and add changes to this tab that will be seen only by you. Learn more ›
×
You can save this tab as Personal to edit and correct it or add notes. All changes will be seen only by you. Learn more »
launch autoscroll
font size
0
reset
how to read this tab
guitar tuner
edit
Autoscroll
slow
fast
+/-
esc
set tempo
stop
INTRO:
  C               Dm             Am            E        Am
e----------|------------|-------------|-----------|---------|
B----------|------------|-------------|-----------|---------|
G--0-2-----|333-3s5-3-2-|-----2h3-2-0-|-----------|--0-2----|
D----------|------------|-333---------|-222-2h3---|---------|
A----------|------------|-------------|-----------|---------|
E----------|------------|-------------|-----------|---------|

e----------|------------|-------------|-----------|---------|
B----------|------------|-------------|-----------|---------|
G--0-2-----|333-3s5-3-2-|-----2h3-2-0-|-----------|---------|
D----------|------------|-333---------|-222-2h3---|--2-0----|
A----------|------------|-------------|-----------|---------|
E----------|------------|-------------|-----------|---------|

Forma  original:
e----------|-----------|-------------|--------------|-----------|
B----------|-----------|-------------|--------------|-----------|
G----------|-----------|-------------|--------------|-----------|
D----------|-----------|-------------|--------------|-----------|
A----5-7---|----888s10-|---8-7-------|-7h87-5-------|-----------|
E----------|-----------|-------8888--|---------7777-|3h5h7------|

e----------|-----------|-------------|--------------|-----------|
B----------|-----------|-------------|--------------|-----------|
G----------|-----------|-------------|--------------|-----------|
D----------|-----------|-------------|--------------|-----------|
A----5-7---|----888s10-|---8-7-------|-7h87-5-------|-5-3-------|
E----------|-----------|-------8888--|---------7777-|----5------|
  Riff
e---3---|
B---3---|
G---2---|
D-------|
A-------|
E-------|

Para los que quieren  elevarlo hasta el requinto  sigan los
mismos
pasos no es necesario el  capo.
Ejemplo: e---12-14-|---151515s17-|


Am
Cuando creas q yo estos ausente
         C
Y me sientas lejos de tu mente
       Dm       Riff Dm   Am
Yo te pido que te vayas  lejos
                  E                 Am
Donde no hayan viejos recuerdos de amor (bis)

Am
Aunque e sido tanto tiempo tuyo
         C
Aunque sigas siendo tú mi mundo
         Dm      Riff  Dm    Am
Si he sabido tanto tiempo amarte
             E                Am
Sabré olvidarte como lo haces tú (bis)

          G              C
Yo te juro q  rencor no habrá
         G              C
Y mi canto no ten llamara
          Dm      Riff Dm   Am
Y si vuelves hacia mí  los ojos
               E                  Am
Te diré de enojos gracias por tu adiós (bis)

INTRO
Am
Cuando empieces a olvidar mi nombre
         C
Y suspires por el de otro hombre
       Dm      Riff Dm   Am
Yo te pido q te vayas  lejos
                  E                Am
Donde no hayan viejos recuerdos de amor (bis)

Am
Aunque e sido tanto tiempo tuyo
         C
Aunque sigas siendo tú mi mundo
         Dm      Riff  Dm    Am
Si he sabido tanto tiempo amarte
             E                Am
Sabré olvidarte como lo haces tú (bis)


          G              C
Yo te juro q  rencor no habrá
         G              C
Y mi canto no ten llamara
          Dm      Riff Dm   Am
Y si vuelves hacia mí  los ojos
               E                  Am
Te diré de enojos gracias por tu adiós (bis)

xxxxxxxxxxxxxxxxxxxxxxxxxxxxxxxxxxxxxxxxxxxxxxxxxxxxxx
Por Cualquier consulta
mtortiz29@

            
            
Suggest correction
Creating personal tab
Creating personal tab
You can edit any tab online and save it as your Personal.

You can edit, replace or remove any tab part or add personal notes – all changes will be seen only by you.

Personal tabs can be accessed anytime from any device, even offline.
Learn more »
Give kudos to tab author, rate the tab!
1 2 3 4 5
comments
print report bad tab
guest
Wanna post a correction for this tab? Suggest correction