Oops, an error
Loading. Please wait.

Arlequín tab

25 views 1 this week
no commentswrite comment
1 2 3 4 5
3 more votes to show rating
add to favorites
×
Save as Personal and add changes to this tab that will be seen only by you. Learn more ›
×
You can save this tab as Personal to edit and correct it or add notes. All changes will be seen only by you. Learn more »
launch autoscroll
font size
0
reset
how to read this tab
guitar tuner
edit
Autoscroll
slow
fast
+/-
esc
set tempo
stop
(intro)

  A/F#      A/E      A/B

E|-----0---|----0---|----0---|--0-----0--------
C|-----2---|----2---|----2---|----2-----2------
G|---2---2-|--2---2-|--2---2-|------2----------
D|---------|--------|--------|-----------------
A|---------|--------|2-------|-----------------
E|-2-------|0-------|--------|-----------------


La intro se repite durante la estrofa

(estrofa)
A/F#       A/E           A/B
Uno se contiene de insultarte tantas cosas

Has asesinado el perfume mentirosa

De un arlequín desesperado en la vida

Si la gente mata mucho mas sobria que borracha

Y así mi vida pende de un pelo o de una hilacha

De un arlequín desesperado en la vida


(estribillo)

  A        A/G      D(add9)/F#  Fdim7      D#m7b5
E-----0---|----0----|----0-----|----0-----|--0--
C-----2---|----2----|----3-----|----0-----|--2--
G---2---2-|--2---2--|--2---2---|--1---1---|--2--
D---------|---------|----------|----------|--1--
A-0-------|---------|----------|----------|-----
E---------|3--------|2---------|1---------|-----


A      A/G        D(add9)/F#
Tiene que terminar
     Fdim7     D#m7b5
Se agota mi stock de risas
A        A/G        D(add9)/F#
Siglos, siglos igual
Fdim7      D#m7b5
Todo es una mentira

(estrofa)


A/F#           A/E            A/B
Vuelven los demonios que me invaden en las noches

Antidiversiones que aprovechan tantas voces

De este arlequín desesperado en la vida


(estribillo)

Tiene que terminar

Se agota mi stock de risas

Siglos, siglos igual

Todo es una mentira
Suggest correction
Creating personal tab
Creating personal tab
You can edit any tab online and save it as your Personal.

You can edit, replace or remove any tab part or add personal notes – all changes will be seen only by you.

Personal tabs can be accessed anytime from any device, even offline.
Learn more »
Give kudos to tab author, rate the tab!
1 2 3 4 5
comments
print report bad tab
guest
Wanna post a correction for this tab? Suggest correction