Oops, an error
Loading. Please wait.

Aquí No Podemos Hacerlo tab

version 2
version 2

Whole song

104 views 3 this week
no commentswrite comment
1 2 3 4 5
3 more votes to show rating
add to favorites
×
Save as Personal and add changes to this tab that will be seen only by you. Learn more ›
×
You can save this tab as Personal to edit and correct it or add notes. All changes will be seen only by you. Learn more »
launch autoscroll
font size
0
reset
how to read this tab
guitar tuner
edit
Autoscroll
slow
fast
+/-
esc
set tempo
stop
INTRO:

               Dm Bb-C Dm Bb C   x 4

e/--------------------------------------------------|
B/-----------------------------------------6--------|
G/--------------------5-------------7--5/7---7-5-7--|
D/-3-----3--------5/7---7-5/3---5/7-----------------|
A/---3-5---5-3-5--------------5---------------------|
E/--------------------------------------------------|

e/--------------------------------------------------|
B/-----8-8/6-----8-8-8-6----------------------------|
G/-7/9-------5/7------------------------------------|
D/------------------------5/7-5-3-------------------|
A/--------------------------------5-----------------|
E/--------------------------------------------------|

Verso:
F                 Bb          C
Morena con la piel de chocolate
       F            Bb               C
no dejaremos de ser dos amantes tu y yo
   Bb             C                Dm
siempre te llevo guardada muy cerca del corazon
         Bb                   C       Dm
Aunque digan que aqui no podemos hacerlo
Bb                     F
dicen que aqui no podemos hacerlo

 F              Bb               C
Nunca quise apurarte y que te quemes mal
     F          Bb            C
mis dedos sólo sirven para tocarte a ti
    Bb                 C                 Dm
un beso otro beso y la pena se va con el humo
   Bb                 C            F
y dicen que aqui no podemos hacerlo

e----------------
B----------------
G----------------
D-3------3-------
A---3--5---5-3-5-
E----------------

Coro:
          Dm                     Bb            C        Bb   C
Creo que se como hacer para resistir al tiempo
Dm                    Bb           C      Bb     C
se como hacer para olvidar el dolor
    Bb            C
pero si dicen   aqui no puedo
      C                       Dm
no creo yo que encuentre un motivo bueno
    Bb                   C           F
si dicen que aqui no podemos hacerlo

e----------------
B----------------
G----------------
D-3------3-------
A---3--5---5-3-5-
E----------------

Verso:
F                 Bb                  C
Voy a volver a los viejos lugares de antes
   F               Bb              C
y voy a seguir buscandote por tu olor
    Bb                C               Dm
he oido que dicen "aqui no podemos hacerlo"
 Bb                  C                 Dm
dicen que aqui no podemos hacerlo los dos

Bb C
hu hu

F            Bb                C
Dicen desconocidos que no podemos
       F                   Bb           C
la historia se escribe en hojas desordenadas
     Bb              C              Dm
no puedo quedarme parado sin hacer nada
    Bb                  C          F
si dicen que aqui no podemos hacerlo

e----------------
B----------------
G----------------
D-3------3-------
A---3--5---5-3-5-
E----------------

Coro:
          Dm                     Bb            C        Bb   C
Creo que se como hacer para resistir al tiempo
Dm                    Bb           C      Bb     C
se como hacer para olvidar el dolor
    Bb            C
pero si dicen   aqui no puedo
      C                       Dm
no creo yo que encuentre un motivo bueno
    Bb                   C           F
si dicen que aqui no podemos hacerlo
  Bb                   C           F
dicen que aqui no podemos hacerlo

Solo:
                   Dm Bb-C Dm Bb C   x 4

e/--------------------------------------------------|
B/--------------------------------------------------|
G/-------------------5------------------------------|
D/-3-----3-------5/7---7-5-3-5-3----------7---------|
A/---3-5---5-3-5-----------------5--5/7-7-----------|
E/--------------------------------------------------|

e/----------------------8-7-6-5-6-5-----5-----------|
B/---6-6-----6--------6-------------8-6---8-6-5-----|
G/-5-----7-5---7-5-7--------------------------------|
D/--------------------------------------------------|
A/--------------------------------------------------|
E/--------------------------------------------------|


e/--------------------------------10---8h10-8h10----|
B/-8-6-5---6-5-----5-6--------6/8----8--------------|
G/-------7-----7-5-----7-5-5------------------------|
D/--------------------------------------------------|
A/--------------------------------------------------|
E/--------------------------------------------------|


e/-12/13-10-12/13-10-12/13--------------------------|
B/-------------------------8-6-6--------------------|
G/--------------------------------------------------|
D/--------------------------------------------------|
A/--------------------------------------------------|
E/--------------------------------------------------|

   F                  Bb             C
Levanta la voz si te dicen que hacer y que no hacer
  F                      Bb         C
cuanto mas grande es la pena, mas ruido va hacer al caer
       Bb                  C     F                   Dm
No te voy a sacar de mis planes sólo porque digan "aqui no vale"
     Bb Gm    C       Am        Dm
y vamos a seguir empezando de nuevo
        Bb                  C          F
aunque digan que aqui no podemos hacerlo
F   Dm  Bb                  C          F
aunque digan que aqui no podemos hacerlo
        Bb                  C          F
aunque digan que aqui no podemos hacerlo
        Bb                  C          Dm
aunque digan que aqui no podemos hacerlo
        Bb                  C          F
aunque digan que aqui no podemos hacerlo

e----------------
B----------------
G----------------
D-3------3-------
A---3--5---5-3-5-
E----------------

Bb C F
e--------------------------------
B---6-8h10-8h10-8h10-8h10-8-6----
G-7---------------------------7--
D--------------------------------
A--------------------------------
E--------------------------------

Bb C F
e-----3/5-5-3--------------------
B---6-3/5-5-3-6-5-3--------------
G-7------------------------------
D--------------------------------
A--------------------------------
E--------------------------------

Bb C Dm
e---------------------------------------
B---6-8(b10)-8(b10)-8(B10)-8(B10)-8-6---
G-7-----------------------------------7-
D---------------------------------------
A---------------------------------------
E---------------------------------------

Bb C F
e----------------
B----------------
G----------------
D-3------3-------
A---3--5---5-3-5-
E----------------

            
            
Suggest correction
Creating personal tab
Creating personal tab
You can edit any tab online and save it as your Personal.

You can edit, replace or remove any tab part or add personal notes – all changes will be seen only by you.

Personal tabs can be accessed anytime from any device, even offline.
Learn more »
Give kudos to tab author, rate the tab!
1 2 3 4 5
comments
print report bad tab
guest
Wanna post a correction for this tab? Suggest correction