Oops, an error
Loading. Please wait.

La Milonga Del Marinero Y El Capitán tab

version 1
version 1

Whole song

155 views 1 this week
no commentswrite comment
1 2 3 4 5
3 more votes to show rating
add to favorites
×
Save as Personal and add changes to this tab that will be seen only by you. Learn more ›
×
You can save this tab as Personal to edit and correct it or add notes. All changes will be seen only by you. Learn more »
launch autoscroll
font size
0
reset
how to read this tab
guitar tuner
edit
Autoscroll
slow
fast
+/-
esc
set tempo
stop
INTRO: Repite dos veces.

        B7        Em         B7         Em
E----------------------------------------------
B----------------------------------------------
G-------------0---------------------0----------
D----------1----4-2--------------1----4-2------
A---0-1-2-----------------0-1-2----------------
E-4------------------0--4------------------0---

        B7        C       B7      Em
E----------------------------------------------
B----------------------------------------------
G-------------0---------4-2-----0--------------
D----------1----4-2----------1----2------------
A---0-1-2------------3-------------------------
E-4--------------------------------------------


       B7
El marinero y el capitán
      Em
se reunieron en un bar,
       B7                    Em      
y encargaron otra botella de ron.

      B7            
Ese sería el puerto final,
         Em
y lo fue tanto, de verdad,
            C                              B7
que bajo el mar ahora descansan juntos los dos.


Am7              D
Fue por una rubia loca
       Em        A7               D  A7  D
que bailaba sola    hasta el amanecer.

       B7
Y se movía, pero tan bien,
          Em
que fue mirarla y fue perder
C                            B7
todo por ese cuerpo y esa promesa.


Repite Intro 1 vez.

          B7             
Ya no era joven pero era audaz
     Em      
y bailaba siempre al compas;
           B7                       Em
no le importaba que se la echaran a suerte
         B7
llego la noche, llego el champagne,
         Em
llego la hora de la verdad
       C                           B7
y esa apuesta, al final la gano la muerte.


Fue por una rubia loca...


Repite Intro 1 vez.

Solo

        B7                         Em
E------------------------------------------------------
B-----------------------5/7------------------------6/8-
G-4-3-4-5-4-3-4-5-4-3-4------4-3-4-5-4-3-4-5-4-3-4-----
D------------------------------------------------------
A------------------------------------------------------
E------------------------------------------------------

        B7                          Em 
E------------------------------------------------------
B-8-8-8-7--5--4^5^4------------------------------------
G-------------------5-4--3-2----2-3-2------------------
D-----------------------------5-------5-2---5-2---2----
A-----------------------------------------5-----5------
E------------------------------------------------------

   B7                          Em
E----7------5------3-2---------------------------------
B-----------------------5-4-5-4^5-----5-4-5-5-----5----
G-/8----8\6----6\4-----------------4----------3^4------
D------------------------------------------------------
A------------------------------------------------------
E------------------------------------------------------

            C                 B7
E----------------------------------------------|
B----------------------------------------------|
G-4^2^0------------0-3-3--3-2-0----------------|
D-------2-0------2--------------4--1-----------|
A-----------3--3----------------------3-2------|
E----------------------------------------------|


          B7
Cuando el barco llega a la ciudad
            Em      
las mujeres salen y los hombres solos
            B7                      Em      
bajan a los bares, y esa noche todo vale!

  B7 
Y sientes tu corazon
         Em              
latir al ritmo de esta milonga
            C
que es la milonga
        B7            Em      
del marinero y el capitan.


Fue por una rubia loca...

Final como en Intro.
Suggest correction
Creating personal tab
Creating personal tab
You can edit any tab online and save it as your Personal.

You can edit, replace or remove any tab part or add personal notes – all changes will be seen only by you.

Personal tabs can be accessed anytime from any device, even offline.
Learn more »
Give kudos to tab author, rate the tab!
1 2 3 4 5
comments
print report bad tab
guest
Wanna post a correction for this tab? Suggest correction