Oops, an error
Loading. Please wait.

Mi Enfermedad bass

113 views 1 this week
no commentswrite comment
1 2 3 4 5
3 more votes to show rating
add to favorites
×
Save as Personal and add changes to this tab that will be seen only by you. Learn more ›
×
You can save this tab as Personal to edit and correct it or add notes. All changes will be seen only by you. Learn more »
launch autoscroll
font size
0
reset
guitar tuner
edit
Autoscroll
slow
fast
+/-
esc
set tempo
stop
Artist:     Los Rodriguez
Song:       Mi Enfermedad
Tabbed by:  Martìn Endara

Intro (0:03)    p
G------------------------
D------------------------
A-----3/4/5---0h5--------
E-1/2/3-----------5--3---

Coro (0:7)                                    p
G---------------------------------------------------
D---------------------------------------------------
A-----0-00--5-55-55-5----------0-00--5-55-55-05-----
E-3-33----------------753--3-33-----------------753-
                                  riff1
G-------------------------        ---------
D-------------------------        ---------
A-------0-00-0--2-22-22-22 x3     -0h2-2/5-
E-3-33-3------------------        ---------


Esta vez el dolor...
G---------------------------
D---------------------------
A-------0-00-0-5-55-55-55-5-
E-3-33-3--------------------

Verso (1:46)

G---------------------------
D---------------------------
A-------0-00-0-5-55-55-55-5-
E-3-33-3-------------------- X2

G-------------------------
D-------------------------
A-------0-00-0--2-22-22-22
E-3-33-3------------------


riff2 (2:39)
G-5/7--------7--
D----7-5--5h7---
A-------5-------
E---------------

Notaciòn:

P: pull
h: hammer

Riff1.- Se lo puede utilizar en varias partes de forma
alternada, de todas maneras yo recomiendo improvisar un
poco para darle vida a la canciòn ya que es tan sencilla.

Riff2.- Es el pequeño solo que se hace tras el silencio
en el tiempo indicado.

Todo lo que debes tocar està aqui, busca el òrden es muy fàcil.

Arriba Ecuador!

            
            
Suggest correction
Creating personal tab
Creating personal tab
You can edit any tab online and save it as your Personal.

You can edit, replace or remove any tab part or add personal notes – all changes will be seen only by you.

Personal tabs can be accessed anytime from any device, even offline.
Learn more »
Give kudos to tab author, rate the tab!
1 2 3 4 5
comments
print report bad tab
guest
Wanna post a correction for this tab? Suggest correction