Oops, an error
Loading. Please wait.

Adiós, Goodbye tab

version 3
version 3

Whole song

by Rojo
19 views 1 this week
no commentswrite comment
1 2 3 4 5
3 more votes to show rating
add to favorites
×
Save as Personal and add changes to this tab that will be seen only by you. Learn more ›
×
You can save this tab as Personal to edit and correct it or add notes. All changes will be seen only by you. Learn more »
launch autoscroll
font size
0
reset
how to read this tab
guitar tuner
edit
Autoscroll
slow
fast
+/-
esc
set tempo
stop
                  A          F#m
Verso 1: La otra vez me encontré
                G
         A una chava que dijo
             D/F#
         Que juntos podíamos
           Dm/F                  E
         Pasarla y llevarla muy bien

 e|---------------------------------0-0-0-|
 B|---------------------------------0-0-0-|
 G|-------------------------------1-1-1-1-|

                  A                F#m
         Le pregunté: ¿What is your name?
                G                D/F#
         Dijo: Tengo un nombre sencillo
            Dm/F          E
         Me llamo distracción

           F#m
Pre coro 1:   Cuando me di cuenta

 e|----------2--2--2--2--2--2--2--2-|
 B|----------2--2--2--2--2--2--2--2-|
 G|----------2--2--2--2--2--2--2--2-|

            G
              Ya habían sido años

 e|---------3--3--3--3--3--3--3--3-|
 B|---------3--3--3--3--3--3--3--3-|
 G|---------0--0--0--0--0--0--0--0-|

           F#m                   G
              Me paré y le dije así

 e|----------2-2-2-2-2-2-2-2-----3-|
 B|----------2-2-2-2-2-2-2-2-----3-|
 G|----------2-2-2-2-2-2-2-2-----0-|

        A        Bm7
Coro: Adiós, goodbye
              C#m7         D
      Ya he perdido mucho tiempo así
           A    Bm7
      Goodbye, adiós
        C#m7             D
      Contigo no tengo futuro

                 A          F#m
Verso 2: Se indignó, se ofendió
               G                D/F#
         Dijo: No puedes hacerme esto

 B|----------------------3--------------3-|
 G|---------------------------------------|
 D|------------5-----------------4--------|

              Dm/F        E
         No podemos terminar

 B|------------------3------0-0-0-|
 G|-------------------------0-0-0-|
 D|------------3----------1-1-1-1-|

                A         F#m
         Me decidí y la corrí
                G               D/F#
         Ya no tengo tiempo para esto

 B|----------------------3-------------3-|
 G|--------------------------------------|
 D|------------5-----------------4-------|

              Dm/F         E
         Se acabó tu diversión

 B|-------------------3-|
 G|---------------------|
 D|------------3--------|

           F#m
Pre coro 2:   Ya me tienes harto

 e|----------2--2--2--2--2--2--2--2-|
 B|----------2--2--2--2--2--2--2--2-|
 G|----------2--2--2--2--2--2--2--2-|

            G
              Ya estoy cansado

 e|---------3--3--3--3--3--3--3--3-|
 B|---------3--3--3--3--3--3--3--3-|
 G|---------0--0--0--0--0--0--0--0-|

           F#m                     G
              Ya no te quiero escuchar

 e|----------2-2-2-2-2-2-2-2-----3-|
 B|----------2-2-2-2-2-2-2-2-----3-|
 G|----------2-2-2-2-2-2-2-2-----0-|

Coro.

Solo:

          A         F#m
 e|---------------------7-------|
 B|---------------------8s7-7-7-|
 G|-----6--------6----------6-6-|
 D|-7-9---7--7-9----------------|
 A|----------------7s9----------|

          G        D/F#   Dm/F           E
 B|--------------------------------------9-|
 G|----------------------------------------|
 D|---7-7h9-9-9-9-9-9-7-7--7-7-7-7-7-7-7-6-|
 A|-9--------------------------------------|

             A              F#m
 B|----12-14--------12-14--------12----10-10-|
 G|-14-----------14--------------12s11-11-11-|
 D|----------14-----------14s16--------------|
 A|------------------------------------------|

          G             D/F#      Dm/F                  E
 G|-11-11-12-12-12-12-12-12-11-11--11-11-11-11-11-12-11-9-9-9-9-|
 D|-12-12-12-12-12-12-12-12-12-12-----------------------9-9-9-9-|
 A|-----------------------------------------------------------7-|

 Trompetas:

            A            B
 B|---------2-2---2---2--4-4---4---4-|
 G|-2-2-2-2-----2---2--------4---4---|

            C            D
 B|---------5-5---5---5--7-7-7--7-7-7-|
 G|-5-5-5-5-----5---5-----------------|

    A            B
 B|-2-2---2---2--4-4---4---4-|
 G|-----2---2--------4---4---|

            C            D
 B|---------5-5---5---5--7-7-7--7-7-7-|
 G|-5-5-5-5-----5---5-----------------|

 Guitarra: A B C D

    A            B
 B|-2-2---2---2--4-4---4---4-|
 G|-----2---2--------4---4---|

    C              D
 B|-5-5-5-5-5--7-8-7-|
 G|------------------|

            F#m
Pre coro 3:   Ya no quiero verte

 e|----------2--2--2--2--2--2--2--2-|
 B|----------2--2--2--2--2--2--2--2-|
 G|----------2--2--2--2--2--2--2--2-|

            G
              Quítate de enfrente

 e|---------3--3--3--3--3--3--3--3-|
 B|---------3--3--3--3--3--3--3--3-|
 G|---------0--0--0--0--0--0--0--0-|

           F#m                  G
              Ya no seguiré tu voz

 e|----------2-2-2-2-2-2-2-2-----3-|
 B|----------2-2-2-2-2-2-2-2-----3-|
 G|----------2-2-2-2-2-2-2-2-----0-|
Suggest correction
Creating personal tab
Creating personal tab
You can edit any tab online and save it as your Personal.

You can edit, replace or remove any tab part or add personal notes – all changes will be seen only by you.

Personal tabs can be accessed anytime from any device, even offline.
Learn more »
Give kudos to tab author, rate the tab!
1 2 3 4 5
comments
print report bad tab
guest
Wanna post a correction for this tab? Suggest correction