Oops, an error
Loading. Please wait.

Así Como Respirar tab

by Rojo
40 views 1 this week
no commentswrite comment
1 2 3 4 5
3 more votes to show rating
add to favorites
×
Save as Personal and add changes to this tab that will be seen only by you. Learn more ›
×
You can save this tab as Personal to edit and correct it or add notes. All changes will be seen only by you. Learn more »
launch autoscroll
font size
0
reset
how to read this tab
guitar tuner
edit
Autoscroll
slow
fast
+/-
esc
set tempo
stop
hola estas mi primera tablatura ojala que les sirva
es super facil es el solo de guitarra

SOlO


  e--------------------------------------------5----
  B--7--5--7--5--7--5--7--5--7--5--7--5--7--8-------
  G-------------------------------------------------
  D-------------------------------------------------
  A-------------------------------------------------
  E-------------------------------------------------


  e-------------------------------------------------
  B--3--5--3--5--3--5--3--5--3--5--3--5--3--5-------
  G-------------------------------------------------
  D-------------------------------------------------
  A-------------------------------------------------
  E-------------------------------------------------


  e--2--3--5--7--5----------------------------------------------
  B-----------------8--7--5-------------------------------------
  G--------------------------7--6--9--7--6----------------------
  D-----------------------------------------9--7--5-------------
  A--------------------------------------------------9--7--5----
  E-------------------------------------------------------------


  e---------------------------------------------------
  B---------------------------------------------------
  G---------------------------------------------------
  D--7--5---------------------------------------------
  A--------9--7---10--9--7--5---4--5--7---------------
  E--------------------------------------7--5---------

  toda la honra sea para Dios
  un saludo para mi iglesia pentecostal de Chile

            
            
Suggest correction
Creating personal tab
Creating personal tab
You can edit any tab online and save it as your Personal.

You can edit, replace or remove any tab part or add personal notes – all changes will be seen only by you.

Personal tabs can be accessed anytime from any device, even offline.
Learn more »
Give kudos to tab author, rate the tab!
1 2 3 4 5
comments
print report bad tab
guest
Wanna post a correction for this tab? Suggest correction