Oops, an error
Loading. Please wait.

Eres Mi Pasión Y Mi Confianza tab

by Rojo
16 views 1 this week
no commentswrite comment
1 2 3 4 5
3 more votes to show rating
add to favorites
×
Save as Personal and add changes to this tab that will be seen only by you. Learn more ›
×
You can save this tab as Personal to edit and correct it or add notes. All changes will be seen only by you. Learn more »
launch autoscroll
font size
0
reset
how to read this tab
guitar tuner
edit
Autoscroll
slow
fast
+/-
esc
set tempo
stop
...Desde Villa la Angostura, Nqn, Arg...

Comienzo de batería;

Intro:

(Acá en la introducción es solo punteo pero se puede
 acompañar con guitarra también!!!)

   A#m       G# Gm F#  G#  A#m       G# Gm F# G#  A#m
e|---------------------------------------------------
B|---------------------------------------------------
G|---------------------------------------------------
D|---------------------------------------------------
A|--1-4-1-4-1-------------0-1-4-1-4-1----------------
E|------------4-4-3-2--3-4------------4-4-3-2--3-2---


D|---------------------------------------------------
A|--1-4-1-4-1-------------0-1-4-1-4-1----------------
E|------------4-4-3-2--3-4------------4-4-3-2--3-2---

          LA LA LA LA LA           LA LA LA LA LA


A#m   G#      F#
Estoy   desesperado
  A#m        G#              F#
Quiero estar   siempre a tu lado
A#m       G#          F#
En la noche me has hallado
   A#m     C#         F#
Te debo la vida y mi todo.
Hu oh hu oh?


CORO:
A#m             C#
Eres todo mi universo
             G#              D#
Todo lo que quiero en las mañanas
(tu eres todo)
A#m            C#
Eres todo mi aliento
           G#             D#
Toda mi pasión y mi confianza.
                A#m
//Hu oh hu oh hu oh
               G#
Hu oh hu oh hu oh
                A#m         G#
uh oh uh oh oh oh oh oh oh oh.//


A#m   G#              F#
Hoy te   pongo en el centro
A#m      G#           F#
Y sabrás   que estoy dispuesto
A#m     G#       C#
Es a mí   no más senderos
   A#m         C#       G#
Te busco y te busco con todo.
Hu oh uh oh?

Coro

D#m       A#m
Te siento en mis venas
D#m      A#m
Ya no tengo mas penas
D#m      A#m
Rompiste mis cadenas
   F#    G#    A#m D#
Tu sangre me compró.

Riff:
   A#m       G# Gm F#  G#  A#m       G# Gm F# G#  A#m
e|---------------------------------------------------
B|---------------------------------------------------
G|---------------------------------------------------
D|---------------------------------------------------
A|--1-4-1-4-1-------------0-1-4-1-4-1----------------
E|------------4-4-3-2--3-4------------4-4-3-2--3-2---


D|----------------------------------------------------
A|-0-1-4-1-4-1-------------0-1-4-1-4-1--------------0-
E|-------------4-4-3-2--3-4------------4-4-3-2--3-2---

(Luego el riff se sigue haciendo de fondo mientras
 se canta esta parte)

A#m     G#     A#m       G#
Nada podrá detener mi alabanza
A#m          G#
No estoy perdido
      A#m     G#
Ha estado tu gracia.

(Se repite el CORO.)

A#m           C#
Ni mi generación arderá (pa - pa -pa)
G#             D#
Buscaremos tu voluntad (pa - pa - pa)
A#m             C#
Tu palabra nos guiará (pa - pa - pa)
G#         D#
Si, así será.
                A#m
//Hu oh hu oh hu oh
               G#
Hu oh hu oh hu oh
                A#m         G#
uh oh uh oh oh oh oh oh oh oh.//


Bueno supongo que las notas son estas y no se me
Hallan escapado algunas, cualquier arreglo avísenme
y Aguante RoJO!!! Muy buen disco este.
 Mi msn es:
Jimmy_kpox100pre@ / jaimevla@

            
            
Suggest correction
Creating personal tab
Creating personal tab
You can edit any tab online and save it as your Personal.

You can edit, replace or remove any tab part or add personal notes – all changes will be seen only by you.

Personal tabs can be accessed anytime from any device, even offline.
Learn more »
Give kudos to tab author, rate the tab!
1 2 3 4 5
comments
print report bad tab
guest
Wanna post a correction for this tab? Suggest correction