Oops, an error
Loading. Please wait.

Llueve En Mí tab

by Rojo
13 views 1 this week
no commentswrite comment
1 2 3 4 5
3 more votes to show rating
add to favorites
×
Save as Personal and add changes to this tab that will be seen only by you. Learn more ›
×
You can save this tab as Personal to edit and correct it or add notes. All changes will be seen only by you. Learn more »
launch autoscroll
font size
0
reset
how to read this tab
guitar tuner
edit
Autoscroll
slow
fast
+/-
esc
set tempo
stop
D            Bm    D            A    
He estado dormido  he dudado de ti 
 D            Bm   D            A 
he tendido a caer  he creido en mi 
 Em                G             Em            G    
cambia el ritmo en mi compresión sacame de mi propia prisión 
  
  D               F#
Oh oh oh oh oh oh oh    llueve en mi y avívame 
 G                A 
Oh oh oh oh oh oh oh    te necesito 
 D                F# 
Oh oh oh oh oh oh oh    llueve en mi y avívame 
 G                A 
Oh oh oh oh oh oh oh  
  
  D               Bm   D                   A     
Quiero ir mas profundo y arrancar la ansiedad 
  D                Bm   D            A        
 tengo hambre de verte y caer a tus pies 
 Em             G           Em             G     
quiero que haya menos de mi para que haya mas de ti 
  
 C              Em        Bb               D       
Sólo tu puedes responder  no tengo a donde ir 
        A 
solo de ti Jesus 

Rekinto
--------------------3-5-6-5-3---------------------
--7-8-10----------------------3-5-5/7------7-8-10-
---------7-7--------------------------------------
--------------------------------------------------
--------------------------------------------------
--------------------------------------------------

---8/10-8/10-----10-12-13-12-10-------------------
--------------------------------11----------------
-7---------------------------------12-12/14-------
--------------------------------------------------
--------------------------------------------------
--------------------------------------------------

Es mi primera transcripcion, espero que les guste 
adios

            
            
Suggest correction
Creating personal tab
Creating personal tab
You can edit any tab online and save it as your Personal.

You can edit, replace or remove any tab part or add personal notes – all changes will be seen only by you.

Personal tabs can be accessed anytime from any device, even offline.
Learn more »
Give kudos to tab author, rate the tab!
1 2 3 4 5
comments
print report bad tab
guest
Wanna post a correction for this tab? Suggest correction