Oops, an error
Loading. Please wait.

No Hay Condenación bass

version 1
version 1

Whole song

Interactive

by Rojo
72 views 1 this week
no commentswrite comment
1 2 3 4 5
3 more votes to show rating
add to favorites
×
Save as Personal and add changes to this tab that will be seen only by you. Learn more ›
×
You can save this tab as Personal to edit and correct it or add notes. All changes will be seen only by you. Learn more »
launch autoscroll
font size
0
reset
guitar tuner
edit
Autoscroll
slow
fast
+/-
esc
set tempo
stop
Esta Rola  saqué sus figuras de madrugada; está 2 que tres pero como varios me la han pedido
Decidí darles el gusto. Espero que las notas sean las correctas...

Clave:   :: s = Slide;   = Slap;  h = Hammer on/pull off ::


::Intro::

E |----------------------------------------------2---0----|-----------------------------------------------------------------0s12s0--
A |---------2--------------------------2---0--------------|-----------2--------------2----------------------------2--0--------------
D |---2h0--------2----0------2---0------------------------|-----2h0--------2----0---------0---------2-----2---0---------------------
G |-------------------------------------------------------|-------------------------------------0-----------------------------------
B |-------------------------------------------------------|-------------------------------------------------------------------------


::Verso::                          :::3 Veces::

E |---0----0--3--------5---3----|----5-----5--3----0---0---3---5-----------
A |----------------2------------|------------------------------------------
D |-----------------------------|------------------------------------------
G |-----------------------------|------------------------------------------
B |-----------------------------|------------------------------------------


E |---0----0--3----------5---3---|------5--5-------------------------------
A |----------------2-------------|-----------------------------------------
D |------------------------------|----------------6s7----------------------
G |------------------------------|-----------------------------------------
B |------------------------------|-----------------------------------------


::Pre-Coro::

E |----5----------------------|--------------------3---|---5----------------------|---3---3-----------3-------------
A |---------5-----8--7----5---|-------------5----------|-------5-----8--7----5----|-------------5-------------------
D |---------------------------|----5--5----------------|--------------------------|-------------------------0s12s0--
G |---------------------------|------------------------|--------------------------|---------------------------------
B |---------------------------|------------------------|--------------------------|---------------------------------


::Coro::

E |---3--------------------------|----------------------------------|------------------------------------|------------------
A |--------2---5----5------------|----5-----------------------------|----7-------------------------------|--3---3---3s15s3--
D |----------------------3---5---|----------4---7----7--------------|---------5-----9---9----------------|------------------
G |------------------------------|--------------------------5----7--|---------------------------7----9---|------------------
B |------------------------------|----------------------------------|------------------------------------|------------------

::Se repite el Intro::

::Verso 2::

E |---0---0---3---------5----3---|---5----5---3----0--0-----3---5---|----0---0--3---------5---3--|---5--5--3--5-------------------------
A |-----------------2------------|----------------------------------|----------------2-----------|-------------------0s12--12---12--10--
D |------------------------------|----------------------------------|----------------------------|--------------------------------------
G |------------------------------|----------------------------------|----------------------------|--------------------------------------
B |------------------------------|----------------------------------|----------------------------|--------------------------------------


::Puente::

E |---------------------------------|-----------------------------------
A |---------------------------------|-----------------------------------
D |---2---2--2--2-----0----2?2---|----2----2--2--2----0---2?2-----
G |---------------------------------|-----------------------------------
B |---------------------------------|-----------------------------------


E |--------------------------------------|----------------------------------------
A |----3----3--3--3-----1----3--3-------|-----3-----3--3--3----1---3---3--------
D |----------------------------------0--|------------------------------------0--
G |--------------------------------------|----------------------------------------
B |--------------------------------------|----------------------------------------


E |----------------------------------|----------------------------------------
A |----------------------------------|----------------------------------------
D |---2---2--2--2-----0----2?2----|---2----2--2--2----0---2?2-----------
G |----------------------------------|----------------------------------------
B |----------------------------------|----------------------------------------


E |----------------------------------|---------------------7----5-----5----3h5-------------------------------------
A |----3----3--3--3-----1----3------|--------7---5----------------------------------3------5----5----------------
D |----------------------------------|-----------------------------------------------------------------------3----3--
G |----------------------------------|---------------------------------------------------------------------------------
B |----------------------------------|---------------------------------------------------------------------------------


      En el puente solo logré escuchar esto; espero que les sirva y sea de bendición. No duden en escribir
si tienen alguna duda o sugerencia. Otra cosa Voten por ella arriba donde dice 'Calidad'.


                                  G O D  B L E S S  Y O U  ! ! !

            
            
Suggest correction
Creating personal tab
Creating personal tab
You can edit any tab online and save it as your Personal.

You can edit, replace or remove any tab part or add personal notes – all changes will be seen only by you.

Personal tabs can be accessed anytime from any device, even offline.
Learn more »
Give kudos to tab author, rate the tab!
1 2 3 4 5
comments
print report bad tab
guest
Wanna post a correction for this tab? Suggest correction