Oops, an error
Loading. Please wait.

Revolución tab

by Rojo
35 views 3 this week
no commentswrite comment
1 2 3 4 5
3 more votes to show rating
add to favorites
×
Save as Personal and add changes to this tab that will be seen only by you. Learn more ›
×
You can save this tab as Personal to edit and correct it or add notes. All changes will be seen only by you. Learn more »
launch autoscroll
font size
0
reset
how to read this tab
guitar tuner
edit
Autoscroll
slow
fast
+/-
esc
set tempo
stop
Pues aki está la kancion kompleta kon el solo de guitarra, espero les sirva
y sea de bendicion, Dios los bendiga.

Intro: E

Versos 1:
            E
        De norte a sur de este a oeste
                                        Asus2
        se oye un grito de guerra y pasión
                E
        Revolucion!
              E
        Un pueblo sale brinda victoria
                                       Asus2
        celebra fiesta unidos por su amor
                E
        Revolucion!

PreCoro:
           E*             B/D#
        Hemos nacido para esta hora
            C#m            Asus2
        para este dia de salvación


Coro:
         E           F#m         Asus2
        Revolución, revolución, revolución

         E           F#m         Asus2       E
        Revolución, revolución, revolución


Versos 2:
          E
        Una ciudad que se conmueve
                                            Asus2
        que tiembla y arde es el poder de Dios
                E
        Revolución!
          E
        Una nación que se levanta
                                     Asus2
        no se conforma con una religion
                E
        Revolución!

PreCoro:

Coro:


Puente & Guitar Solo: (Oswaldo usa pedal wah y me parece ke tmb whammy)

Nota: los acordes de aki son powerchords

B-B  C#-C#  B/D#-B/D#  E-E  F#-E  Asus2


e |----14/16---14p12-14---12-12-12-11--------------
B |------------------------------------12-12vvv----
G |------------------------------------------------
D |------------------------------------------------
A |------------------------------------------------
E |------------------------------------------------

B-B  C#-C#  B/D#-B/D#  E-E  F#-E  Asus2


e |-------------12/14---12h14p12/11------------
B |----0----------------------------12-12vvv---
G |--------------------------------------------
D |--------------------------------------------
A |--------------------------------------------
E |--------------------------------------------

B-B  C#-C#  B/D#-B/D#  E-E  F#-E  Asus2


e |---7/19-00-17-00-16-00-17-00-16-00-14-00-12-00-
B |-----------------------------------------------
G |-----------------------------------------------
D |-----------------------------------------------
A |-----------------------------------------------
E |-----------------------------------------------

e |---14-00-12-0-11-0-9-0-7-0-7/9---7-7vvv---
B |------------------------------------------
G |------------------------------------------
D |------------------------------------------
A |------------------------------------------
E |------------------------------------------


B-B  C#-C#  B/D#-B/D#  E-E  F#-E  Asus2


e |-------------19--------17-------/16--14p12--<12>----0vvv------------||
B |------/17-19-----17-19----17-19--------------------------0vvv-------||
G |--------------------------------------------------------------------||
D |---------------------------------------------------------------2vvv-||
A |--------------------------------------------------------------------||
E |--------------------------------------------------------------------||


Versos 3:
             E
        Con la verdad en nuestras manos
                                        Asus2
        nos levantamos marchando sin temor
                E
        Revolución!

            E
        Un rio fluye contracorriente
                                       Asus2
        rompe los muros es el rio de Dios
                E
        Revolución!

Precoro:

Coro y Outro: E - F#m - Asus2 (se repite varias veces y finaliza en E)

Acordes:
E: 022100
E*: 079900
Asus2: X02200
B/D#: X69800
C#m7: X46454
F#m: 244222

Simbolos:
/ = slide
v = vibrato
 = kon la palanka de la guitarra (si tienes) aflojas la kuerda
<12> = armoniko
h = hammer-on
p = pull-off

Dudas? Komentarios? Sugerencias? ---> burbujo_power_puff_boy@

            
            
Suggest correction
Creating personal tab
Creating personal tab
You can edit any tab online and save it as your Personal.

You can edit, replace or remove any tab part or add personal notes – all changes will be seen only by you.

Personal tabs can be accessed anytime from any device, even offline.
Learn more »
Give kudos to tab author, rate the tab!
1 2 3 4 5
comments
print report bad tab
guest
Wanna post a correction for this tab? Suggest correction