Oops, an error
Loading. Please wait.

Siempre Te Amaré bass

by Rojo
1 view 1 this week
no commentswrite comment
1 2 3 4 5
3 more votes to show rating
add to favorites
×
Save as Personal and add changes to this tab that will be seen only by you. Learn more ›
×
You can save this tab as Personal to edit and correct it or add notes. All changes will be seen only by you. Learn more »
launch autoscroll
font size
0
reset
guitar tuner
edit
Autoscroll
slow
fast
+/-
esc
set tempo
stop
:Intro:(Guitarra Distorsion)
:Intro:(x3)

G]:-----------:-----------:
D]:-----------:-----------:
A]:-----------:-----------:
E]:----7-5-7-5:-----------:
B]:0----------:5---5-3-5-3:

:Estrofa 1:

Jesús, tu nombre...

G]:-----------:-----------:------------:-------------:
D]:-----------:-----------:------------:----------3-5:
A]:-----------:-----------:------------:-------------:
E]:3----------:-----------:3-----------:-------------:
B]:-----------:-----------:------------:-------------:

Jesús, tu sacrificio...

G]:-----------:-----------:------------:-------------:
D]:-----------:-----------:------------:-------------:
A]:-----------:-----------:------------:-------------:
E]:3----------:-----------:3-----------:-------------:
B]:-----------:-----------:------------:------------3:

Y Yo vivo...

G]:-----------:------------:------------:--------------:
D]:-----------:------------:------------:--------------:
A]:-----------:------------:3-----------:--------------:
E]:-----------:------0-----:------------:3-------------:
B]:5----------:------------:------------:--------------:

:Coro:

Creo en Ti...

G]:---------------:---------------:---------------:---------------:
D]:---------------:---------------:---------------:---------------:
A]:---------------:---------------:---------------:---------------:
E]:---------------:---------------:5-5-5-5-5-5-5-5:5-5-5-5-5-5-5-5:
B]:3-3-3-3-3-3-3-3:3-3-3-3-3-3-3-3:---------------:---------------:

Fiel, yo siempre...

G]:---------------:---------------:---------------:-----------------:
D]:---------------:---------------:---------------:-----------------:
A]:---------------:3-3-3-3-3-3-3-3:5-5-5-5-5-5-5-5:5-5-5-5-5-5------:
E]:3-3-3-3-3-3-3-3:---------------:---------------:------------3-3-3:
B]:---------------:---------------:---------------:-----------------:

Me postrare...

G]:---------------:---------------:---------------:---------------:
D]:---------------:---------------:---------------:---------------:
A]:---------------:---------------:---------------:---------------:
E]:---------------:---------------:5-5-5-5-5-5-5-5:5-5-5-5-5-5-5-5:
B]:3-3-3-3-3-3-3-3:3-3-3-3-3-3-3-3:---------------:---------------:
Cambiar, yo siempre...

G]:---------------:---------------:---------------:-----------------:
D]:---------------:---------------:---------------:-----------------:
A]:---------------:3-3-3-3-3-3-3-3:5-5-5-5-5-5-5-5:-----------------:
E]:3-3-3-3-3-3-3-3:---------------:---------------:------------3-3-3:
B]:---------------:---------------:---------------:3-3-3-3-3-3------:

:Estrofa 2:

Jesús, llegaste...

G]:-----------:------------:------------:---------------:
D]:--------3-5:---------3-5:---------3-5:----------3-5-5:
A]:-----5-----:-----5------:-----5------:------5--------:
E]:3----------:3-----------:3-----------:3--------------:
B]:-----------:------------:------------:---------------:

Jesús, no existe...

G]:-----------:------------:------------:-------------:
D]:--------3-5:---------3-5:---------3-5:----------3-5:
A]:-----5-----:-----5------:-----5------:------5------:
E]:3----------:3-----------:3-----------:3------------:
B]:-----------:------------:------------:-------------:

Tu quitaste...

G]:-----------:-------------:------------:--------------:
D]:-----------:-------------:------------:--------------:
A]:-----------:7-7----------:3-----------:--------------:
E]:0----------:------7-0----:------------:3-------------:
B]:-----------:-------------:------------:--------------:

:Coro:
:Intermedio:
:Solo de Guitarra:

G]:---------------:---------------:---------------:---------------:
D]:---------------:---------------:---------------:---------------:
A]:---------------:---------------:---------------:---------------:
E]:---------------:---------------:5-5-5-5-5-5-5-5:5-5-5-5-5-5-5-5:
B]:3-3-3-3-3-3-3-3:3-3-3-3-3-3-3-3:---------------:---------------:

G]:---------------:---------------:---------------:-----------------:
D]:---------------:---------------:---------------:-----------------:
A]:---------------:3-3-3-3-3-3-3-3:5-5-5-5-5-5-5-5:---------5-------:
E]:3-3-3-3-3-3-3-3:---------------:---------------:------------3-3-3:
B]:---------------:---------------:---------------:3-3-3-3-3--------:

:Coro:
:Final: = :Intro:
:Ultima Nota:

G]:---------------:
D]:---------------:
A]:---------------:
E]:---------------:
B]:3--------------:


Mando saludos a Israel, mi gran amigo chancador de lata, jejeje
un saludo grande tambien a mi Elizabeth, aunque ella no sabe nada jejeje
chau amigos escribanme!!!

            
            
Suggest correction
Creating personal tab
Creating personal tab
You can edit any tab online and save it as your Personal.

You can edit, replace or remove any tab part or add personal notes – all changes will be seen only by you.

Personal tabs can be accessed anytime from any device, even offline.
Learn more »
Give kudos to tab author, rate the tab!
1 2 3 4 5
comments
print report bad tab
guest
Wanna post a correction for this tab? Suggest correction