Oops, an error
Loading. Please wait.

Siempre Te Amaré chords

version 3
version 3

Whole song

by Rojo
16 views 1 this week
no commentswrite comment
1 2 3 4 5
3 more votes to show rating
add to favorites
×
Save as Personal and add changes to this tab that will be seen only by you. Learn more ›
×
You can save this tab as Personal to edit and correct it or add notes. All changes will be seen only by you. Learn more »
launch autoscroll
font size
0
reset
transpose
0
reset
simplify chords
display chords
guitar tuner
edit
Autoscroll
slow
fast
+/-
esc
set tempo
stop
Strumming
There is no strumming pattern for this song yet. and get +5 IQ
ola a todos
soy de MOnterrey Nuevo leon Mexico
i les tengo la kansion de siempre te amare
la verdad no se de que disko es
aii diganme si saben d ke disko es
aki les dejo mi e-mail por si aii problemas
davidelrayado@
R°jo es el mejor grupo :)

intro: B-A-E

G         G7          G           G7     G        G7
Jesus tu nombre es Bendito por La eternidad
    G      G7
(tu eres Santo)
G         G7         G        G7        G        G7
Jesus tu sacrificio ha pagado mi saLvacion
     G    G7
(me has amado)
Em                  C
y yo vivo agradecido por todo Tu amor

(coro)
D                         Am
creo en Ti, creo en Tu amor,
                           Em
Tu eres mi Dios, mi Amigo Fiel!
     C           D    G-G-G
yo siempre Te amare
D                     Am
me postrare te adorare no hay nada qe
              Em
me haga cambiar
     C            D     G-G-G
yo siempre Te amare

G         G7         G          G7      G        G7
Jesus llegaste a mi vida cuando no podia mas
      G        G7
(fue justo a tiempo)
G         G7          G           G7     G        G7
Jesus no exixte nada qe me pueda satisfacer
     G   G7
(te necesito)
Em                   C
Tu qitaste mi ceguera vivo en Libertad

(coro)

     Em                  Bb             A
me envueLven Tus manos como un mar sin fin
   Em                Bb
mi vida es tuya de rodillas viviree
(las 24 horas deL dia
Los 365 dias deL año!)

RIFF:

  D
e|-------------------------------------|
B|-------------------------------------|
G|-7-7-7-7-7-9-9-11-11-11-11-11-11-7-7-|
D|-------------------------------------|
A|-------------------------------------|
E|-------------------------------------|

Am
e|---------------------------------|
B|---------------------------------|
G|-9-9-9-9-9-7-7-7-5-5-5-5-5-5-5-5-|
D|---------------------------------|
A|---------------------------------|
E|---------------------------------|

 Em
e|------------------|
B|------------------|
G|4-4-4-7-7-7-7-7-4-|
D|------------------|
A|------------------|
E|------------------|

  C
e|-----------------------------------------------------|
B|-----------------------------------------------------|
G|-5-5-5-7-7-7-9-9-11-11-11-11-11-11-11-11-11-11-11-11-|
D|-----------------------------------------------------|
A|-----------------------------------------------------|
E|-----------------------------------------------------|
(coro)

El siguiente RIFF es de cuando dicen
"ooooh ooh oh, ooooh ooh oh"
NOTA: LOS ACORDES DE ESTA PARTE
QE LES MENCIONO SON LOS MISMOS KE LOS DEL KORO

  D                                  Am
G|-7/11--9-7--7/11--9-7-|-7/12--9--5--5/12--9--5

Muchas gracias por ver esta tab
bendiciones a todos
saludos al grupo de la iglesia campo de los milagros
"nuevo comienzo 8" (nc-8)
ii a toda la iglesia tambien
aganme saber kualkier duda

            
            
Suggest correction
Creating personal tab
Creating personal tab
You can edit any tab online and save it as your Personal.

You can edit, replace or remove any tab part or add personal notes – all changes will be seen only by you.

Personal tabs can be accessed anytime from any device, even offline.
Learn more »
Give kudos to tab author, rate the tab!
1 2 3 4 5
comments
print report bad tab
guest
Wanna post a correction for this tab? Suggest correction