Oops, an error
Loading. Please wait.

Solo Tú tab

version 1
version 1

Whole song

Interactive

by Rojo
84 views 1 this week
no commentswrite comment
1 2 3 4 5
2 more votes to show rating
add to favorites
×
Save as Personal and add changes to this tab that will be seen only by you. Learn more ›
×
You can save this tab as Personal to edit and correct it or add notes. All changes will be seen only by you. Learn more »
launch autoscroll
font size
0
reset
how to read this tab
guitar tuner
edit
Autoscroll
slow
fast
+/-
esc
set tempo
stop
INTRO

Dmaj7 - Bm - F#m

Dmaj7         Bm          F#m
Es mi anhelo, mi deseo adorarte más y más
Dmaj7       Bm             F#m
No detengo, no suspendo al acercarme a tu verdad
G                         A                 Bm
Las mañanas me dicen que quieres estar a mi lado
   F#madd4     G                  A
Mi Dios. Seguiré tras de Ti, seguiré tras tus pasos.

CORO
  D                           F#
Tú solo Tú solo Tú, me elevas a soñar
 Bm                            G
Tú solo Tú solo Tú, me enseñas a volar
 D                               F#
Tú solo Tú solo Tú, te adueñaste de mi amor
Bm                             G
Tú solo Tú solo Tú, cautivaste el corazón
   D F# Bm             Em G A
//So-lo Tú, solo solo so-lo Tú.//

e:[--10----10----9----9----7---7---7---7-------
B:[-----10----10---11---11---7---7---8---8----- x2
G:[---------(esto-se-toca-en-los-coros)--------

Te haz llevado, todo el miedo todo lo que me atrapo
Mi camino, mi destino lo encontré en tu corazón
Cada noche me dice que estas escuchando mi alma
Mi Dios. Buscaré más de Ti, buscaré tus fragancias.

PUENTE
Em      F#           Bm        D           G
Brillan tus rayos de amor, y escucho esta gracia
                    F#
Que me hace amarte más.

SOLO

e:[-10----------------------------2--5--8--12----------------------------
B:[----12-10-----------------------------------14v/12-10---10/12----12---
G:[----------11--------11--9/11--3--5--8--11-------------11-------11-----
D:[-------------12-9-12--------------------------------------------------

e:[--10-10--10-10---------10-10--10-10------------------------
B:[--12-12--10-10--10-10--12-12--10-10--10-10--10-10----------
G:[----------------12-12----------------12-12--11-11--11-11---
D:[---------------------------------------------------12-12---

(Acordes)

         EADGBe
  DMaj7= x25422
     Bm= 024432
    F#m= 244222
      G= 320033
      A= 002220
F#madd4= 0042x0
      D= 000232
     F#= 244322
     Em= 022000

esta cancion esta bien padre suena como la original solo
tienen que escuchar el ritmo...
DLB saludos
Dudas a: li_shinron@

            
            
Suggest correction
Creating personal tab
Creating personal tab
You can edit any tab online and save it as your Personal.

You can edit, replace or remove any tab part or add personal notes – all changes will be seen only by you.

Personal tabs can be accessed anytime from any device, even offline.
Learn more »
Give kudos to tab author, rate the tab!
1 2 3 4 5
comments
print report bad tab
guest
Wanna post a correction for this tab? Suggest correction