Oops, an error
Loading. Please wait.

Te Alabaré Mi Buen Jesús bass

version 1
version 1

Whole song

Interactive

by Rojo
86 views 1 this week
no commentswrite comment
1 2 3 4 5
2 more votes to show rating
add to favorites
×
Save as Personal and add changes to this tab that will be seen only by you. Learn more ›
×
You can save this tab as Personal to edit and correct it or add notes. All changes will be seen only by you. Learn more »
launch autoscroll
font size
0
reset
guitar tuner
edit
Autoscroll
slow
fast
+/-
esc
set tempo
stop
Bueno esta es mi primera transcripcion y es una corrección a la de
mauricio aguilar y creo q esta casi exacta solo unos arreglos en el
coro
Ojo los cambios son exactamente en la silaba en q estan

intro:
E|-*1/12/1----0--0------------0--0-------------------------|
A|-------------------2s7-7-----------2s7-7-----------------|
D|---------------------------------------------------------|
G|---------------------------------------------------------|

E|--5-5-5-5-5---0--0------------0--0-----------------------|
A|--------------------2s7-7------------2s7-7---------------|
A|---------------------------------------------------------|
D|---------------------------------------------------------|
G|---------------------------------------------------------|

Verso:

 E                            C#             A
eres tu la unica razón de mi adoración oh Jesús
E|---0--0--0--0--0--0--0--0-----------------5--5--5--5--5--|
A|----------------------------4--4--4--4-------------------|
D|---------------------------------------------------------|
G|---------------------------------------------------------|
 E                          C#            A
eres tu la esperanza que anele tener oh Jesús
E|--0--0--0--0--0--0--0--0----------------5--5--5--5--5----|
A|---------------------------4--4--4--4--------------------|
D|---------------------------------------------------------|
G|---------------------------------------------------------|
 F#                    B      D                     B
confio en ti me has ayudado tu salvacion me has regalado
E|-2--2--2--2--2--2--2-------------------------------------|
A|---------------------2-2-2--5--5--5--5--5--5--5---2--2--2|
D|-----------------|---------------------------------------|
G|-----------------|---------------------------------------|
 E                                           B
hoy hay gozo en mi corazón con canto te alabareeee...
E|--0--0--0--0--0--0--0--0--0--0--0--0--0--0---------------|
A|-----------------------------------------------2--2------|
D|---------------------------------------------------------|
G|---------------------------------------------------------|

(CORO)
2 veces
 F#      C#  D#         B     F#      C#         B
te alabare, te glorificare , Te alabare Mi Buen Jesús

Verso x1

Coro x2

solo

E|--------------------------------------------|
A|------------9---9---9----11----7---7---9--9-|
D|----9---9-----9---9---11----11---7---9---9--|
G|--9---9---9---------------------------------|

 E                     B    C#     A              B
en todo tiempo te alabare, en todo tiempo te adorareee...  X2


puente

E|-------------------|
A|-----3--3-3------2-| x6
D|-2-2--------0-0----|
G|-------------------|

allí el coro cabmia de tono a sol
 G          D                E             C
te alabare, te glorificare , Te alabare Mi Buen Jesús


puente

E|-------------------|
A|-----3--3-3------2-| x8
D|-2-2--------0-0----|
G|-------------------|
-----------------------------------------------------------------------
SALUDOS, y ojala ls sirva para tocar en sus iglesias!
Dios los Bendiga

            
            
Suggest correction
Creating personal tab
Creating personal tab
You can edit any tab online and save it as your Personal.

You can edit, replace or remove any tab part or add personal notes – all changes will be seen only by you.

Personal tabs can be accessed anytime from any device, even offline.
Learn more »
Give kudos to tab author, rate the tab!
1 2 3 4 5
comments
print report bad tab
guest
Wanna post a correction for this tab? Suggest correction