Oops, an error
Loading. Please wait.

Te Alabaré Mi Buen Jesús tab

version 1
version 1

Whole song

Interactive

by Rojo
73 views 1 this week
no commentswrite comment
1 2 3 4 5
3 more votes to show rating
add to favorites
×
Save as Personal and add changes to this tab that will be seen only by you. Learn more ›
×
You can save this tab as Personal to edit and correct it or add notes. All changes will be seen only by you. Learn more »
launch autoscroll
font size
0
reset
how to read this tab
guitar tuner
edit
Autoscroll
slow
fast
+/-
esc
set tempo
stop
ESTE ES EL INTRO DE LA CANCION  SE REPITE TONCANDO LOS ACORDES
TOQUEN  COMO SE MARCA ABAJO Y NO CON LA NOTAS NORMALES

E ---0--|---0--|---0---|
B ---0--|---0--|---0---|
G ---9--|---2--|---2---|
D ---9--|---9--|---7---|
A ---7--|---7--|---7---|
E ---X--|---X--|---5---|
     E      B/E    A

PARA TOCAR ESTA CANCINO SE UTILISAN ESTOS ACOR
DES LOS ACORDES DE ARRIBA SE BUELBEN A UTILIZAR

E --2--|--2--|--4--|--0--|--4--|
B --2--|--2--|--4--|--0--|--5--|
G --4--|--2--|--6--|--2--|--6--|
D --4--|--4--|--6--|--2--|--6--|
A --2--|--4--|--4--|--0--|--4--|
E --2--|--2--|--4--|--X--|--4--|
    B    F#m   C#m   A/E   D#m

E             B/E
Eres tú la unica razón
       C#m             A
de mi adoración, Oh Jesús.
E               B/E
Eres tú, la esperanza que
    C.M             A
Anhele tener, Oh Jesús.

F#m                     B
Confié en tí me has ayudado
D                      B
Tu salvación me has regalado.
E                     B/E
Hoy hay gozo en mi corazón
     A/E              B
Con mi canto te alabaré.

Coro:
F#       C#            B   F#
Te alabaré, Te glorificaré
F#       C#           B
Te alabaré mi Buen Jesús

EL CORO SE REPITE

E                      B  C#m        A             B
En todo tiempo de alabaré  En todo tiempo te adoraré

EN LA PARTE QUE SIGUE SE TOCA ESTOS ACORDES ESTAN BIEN FACILES

E -7--|--3--|--5--|--2--|
B -7--|--3--|--5--|--2--|
G -9--|--5--|--7--|--4--|TE ALABARE...
D -9--|--5--|--7--|--4--|
A -7--|--3--|--5--|--2--|
E -X--|--3--|--5--|--2--|

Se repite todo esto y se toca lo mismo en la parte
Final
ESTO ES LO QUE HACE LA GUTARRA ELECTRICA COMO FONDO MIENTRAS QUE SE
HACE LO DE ARRIVA

E------------------------------------------------10-
B----------8-5-8--10--7----------8--5--8--10--7-----
G----9--9----------------8---9-9--------------------
D---------------------------------------------------
A---------------------------------------------------
E---------------------------------------------------

ESTO FUE TODO NO SE OLVEDENPOR BOTAR ESTA CANCION SE
OLLE MUY ORIGINAL ALGUNAS PARTES SE REPITE

D I O S T E   B E N D I G A

            
            
Suggest correction
Creating personal tab
Creating personal tab
You can edit any tab online and save it as your Personal.

You can edit, replace or remove any tab part or add personal notes – all changes will be seen only by you.

Personal tabs can be accessed anytime from any device, even offline.
Learn more »
Give kudos to tab author, rate the tab!
1 2 3 4 5
comments
print report bad tab
guest
Wanna post a correction for this tab? Suggest correction