Oops, an error
Loading. Please wait.

Te Amo Más Que A Mi Misma Vida bass

version 2
version 2

Whole song

by Rojo
31 views 1 this week
no commentswrite comment
1 2 3 4 5
3 more votes to show rating
add to favorites
×
Save as Personal and add changes to this tab that will be seen only by you. Learn more ›
×
You can save this tab as Personal to edit and correct it or add notes. All changes will be seen only by you. Learn more »
launch autoscroll
font size
0
reset
guitar tuner
edit
Autoscroll
slow
fast
+/-
esc
set tempo
stop
Hola soy Yovanny. Este es mi primer aporte y estoy seguroo
de que suena igual a la original!

Recomiendo que escuchen muy bien la cancion!


En el primer Verso el bajo entra cuando dice:

  Y si hubieran sufientes días...

VERSO:
E|---------|-4-44--4-44--11-11--11-11-------------|
A|2s4-4h5h4|----------------------------1-11--11-11|
D|---------|---------------------------------------|
G|---------|---------------------------------------|

E|1-11---1-11--------------|
A|--------------2-22---2-22|
D|-------------------------|
G|-------------------------|

PRE-CORO:
E|-------4-|   |222222222|
A|2s6--4---|x3 |---------|
D|---------|   |---------|
G|---------|   |---------|

CORO:
E|-------4-444---------2-222|
A|4-444---------1-111-------|x2
D|--------------------------|
G|--------------------------|

No tengo otra razon...
E|4----------------|
A|--2h4-4-55--4-222|x8
D|-----------------|
G|-----------------|

VERSO...(Ya en este verso el bajo entra normal)
PRE-CORO...
CORO...

SOLO:
E|-------4-|   |222222222|
A|2s6--4---|x3 |---------|
D|---------|   |---------|
G|---------|   |---------|
CORO.

No tengo otra razon...
E|4----------------|
A|--2h4-4-55--4-222|x8
D|-----------------|
G|-----------------|


Final:
E|----4-2-|
A|4-2-----|
D|--------|
G|--------|

Espero que les sirva y si hay dudas o algun error
les dejo mi correo: yac-c12@

            
            
Suggest correction
Creating personal tab
Creating personal tab
You can edit any tab online and save it as your Personal.

You can edit, replace or remove any tab part or add personal notes – all changes will be seen only by you.

Personal tabs can be accessed anytime from any device, even offline.
Learn more »
Give kudos to tab author, rate the tab!
1 2 3 4 5
comments
print report bad tab
guest
Wanna post a correction for this tab? Suggest correction