Oops, an error
Loading. Please wait.

Yo Soy La Revolución bass

version 1
version 1

Whole song

by Rojo
40 views 1 this week
no commentswrite comment
1 2 3 4 5
3 more votes to show rating
add to favorites
×
Save as Personal and add changes to this tab that will be seen only by you. Learn more ›
×
You can save this tab as Personal to edit and correct it or add notes. All changes will be seen only by you. Learn more »
launch autoscroll
font size
0
reset
guitar tuner
edit
Autoscroll
slow
fast
+/-
esc
set tempo
stop
?p? = Popping; ?h? = Hammer; ?s? = slide
:Intro:(Batería Sintetizada)
:Slap de Bajo:

G]:----2p-h4----:
D]:-------------:
A]:-------------:
E]:-------------:

:Intro:

G]:-----------:--------------:-----------:---------------:
D]:---4-5-4---:--------------:---4-5-4---:---------------:
A]:2----------:-------2------:2----------:-------2-------:
E]:----------2:2--3-5---5-3-5:----------2:2--3-5----5-3-5:

G]:-----------:--------------:-----------:---------------:
D]:---4-5-4---:--------------:---4-5-4---:---------------:
A]:2----------:-------2------:2----------:-------2s------:
E]:----------2:2--3-5---5-3-5:----------2:2--3-5---------:

:Estrofa:

Ser ultimo, es ser primero...

G]:-----------:--------------:-----------:---------------:
D]:---4-5-4---:--------------:---4-5-4---:---------------:
A]:2----------:-------2------:2----------:-------2-------:
E]:----------2:2--3-5---5-3-5:----------2:2--3-5----5-3-5:

Tener hambre es ser saciado...

G]:-----------:--------------:-----------:---------------:
D]:---4-5-4---:--------------:---4-5-4---:---------------:
A]:2----------:-------2------:2----------:-------2-------:
E]:----------2:2--3-5---5-3-5:----------2:2--3-5----5-3-5:

:Pre-Coro:

Esta vez, no parare...

G]:------------:------------:------------------:------------------:
D]:------------:------------:------------------:12-12-12-12-12-12s:
A]:2-2-2-2-2-2s:7-7-7-7-7-7s:10-10-10-10-10-10s:------------------:
E]:------------:------------:------------------:------------------:

Esta vez, ya descubrí...

G]:------------:------------:------------------:-------------------:
D]:------------:------------:------------------:12-12-12-12--------:
A]:2-2-2-2-2-2s:7-7-7-7-7-7s:10-10-10-10-10-10s:-------------------:
E]:------------:------------:------------------:------------2-2-2-2:

:Coro:

Yo Soy la Revolución...

G]:--------------:--------------:--------------:--------------:
D]:--------------:--------------:--------------:--------------:
A]:2-2--2s-5-5--5:--------------:2-2--2s-5-5--5:--------------:
E]:--------------:5-5--5s-2-2--2:--------------:5-5--5s-2-2--2:
Yo Soy la Revolución...

G]:--------------:--------------:--------------:--------------:
D]:--------------:--------------:--------------:--------------:
A]:2-2--2s-5-5--5:--------------:2-2--2s-5-5--5:--------------:
E]:--------------:5-5--5s-2-2--2:--------------:5-5--5s-2-2--2:

:Puente:(Guitarra con Efecto)
:Entrada:(Guitarra con Bajo)

G]:---------:
D]:---------:
A]:------2--:
E]:2-3-5---5:

:Estrofa:
:Pre-Coro:
:Coro:
:Intermedio:

Cuando todo se acaba...

G]:-----------:--------------:-----------:---------------:
D]:---4-5-4---:--------------:---4-5-4---:---------------:
A]:2----------:-------2------:2----------:-------2-------:
E]:----------2:2--3-5---5-3-5:----------2:2--3-5----5-3-5:

Hambriento y Sediento...

G]:-----------:--------------:-----------:---------------:
D]:---4-5-4---:--------------:---4-5-4---:---------------:
A]:2----------:-------2------:2----------:-------2-------:
E]:----------2:2--3-5---5-3-5:----------2:2--3-5----5-3-5:

:Pre-Coro:(Guitarra y Voces)
:Coro:
:Coro:(Tarareo: Oh, Oh,Oh...)
:Final:

G]:-----------:--------------:-----------:---------------:
D]:---4-5-4---:--------------:---4-5-4---:---------------:
A]:2----------:-------2------:2----------:-------2-------:(x2)
E]:----------2:2--3-5---5-3-5:----------2:2--3-5----5-3-5:

G]:-----------:--------------:
D]:---4-5-4---:--------------:
A]:2----------:--------------:
E]:----------2:2-2-2-2-2-----:

:Final:(Voces, Guitarra Distorsión, Efectos)


Somos la Revolucion... Somos la Raza q marca la diferencia con el mundo
Somos NOSOTROS los que iniciaremos la Revolucion...
Un Enorme saludo a la unica persona q Revoluciono mi forma de amar... Kathy
Te amo muchisimo Amada Mia... eres mi locura y eres todo mi amor
Gracias Jesus xq tu me la hicistes conocer, Gracias Dios!!!
Ah!!! y un saludo tambien para mi amiguita Claudia Taipe... DTBM

            
            
Suggest correction
Creating personal tab
Creating personal tab
You can edit any tab online and save it as your Personal.

You can edit, replace or remove any tab part or add personal notes – all changes will be seen only by you.

Personal tabs can be accessed anytime from any device, even offline.
Learn more »
Give kudos to tab author, rate the tab!
1 2 3 4 5
comments
print report bad tab
guest
Wanna post a correction for this tab? Suggest correction