Oops, an error
Loading. Please wait.

Yo Soy La Revolución bass

version 2
version 2

Whole song

by Rojo
4 views 1 this week
no commentswrite comment
1 2 3 4 5
3 more votes to show rating
add to favorites
×
Save as Personal and add changes to this tab that will be seen only by you. Learn more ›
×
You can save this tab as Personal to edit and correct it or add notes. All changes will be seen only by you. Learn more »
launch autoscroll
font size
0
reset
guitar tuner
edit
Autoscroll
slow
fast
+/-
esc
set tempo
stop
Es fácil esta canción y sobre todo muy buena,
escuchenla muy bien


***Esta es la base para la intro y para toda la estrofa

G]-------------------------------------:---------------
D]--------4-5--------------------------:4-5------------
A]---2------------------2------------2-:---------------
E]------------3-3-3-5----5---3---5-----:-----3-3-3-----


G]-----------------------------------------------------
D]-----------------------------------------------------
A]---2--------2----------------------------------------
E]-----5--3-5------------------------------------------


***Para el PRE coro

Esta vez no parare?.

G]-----------------------------------------------------
D]----------------------------------------12-12-12-12--
A]--2-2-2-2-s-----7-7-7-7s---10-10-10-10s--------------
E]-----------------------------------------------------


****Y para el coro solo marca con la Batería muy sencillo


Yo soy la revolución

G]-----------------------------------------------------
D]-----------------------------------------------------
A]----2-2--2s----5-5-5---------------------------------
E]-----------------------5-5?5s----2-2-2-2-------------


Para El intermedio ?hambriento y sediento? hace lo misma
 base de toda la canción

G]-------------------------------------:---------------
D]--------4-5--------------------------:4-5------------
A]---2------------------2------------2-:---------------
E]------------3-3-3-5----5---3---5-----:-----3-3-3-----


G]-----------------------------------------------------
D]-----------------------------------------------------
A]---2--------2----------------------------------------
E]-----5--3-5------------------------------------------


djrc

            
            
Suggest correction
Creating personal tab
Creating personal tab
You can edit any tab online and save it as your Personal.

You can edit, replace or remove any tab part or add personal notes – all changes will be seen only by you.

Personal tabs can be accessed anytime from any device, even offline.
Learn more »
Give kudos to tab author, rate the tab!
1 2 3 4 5
comments
print report bad tab
guest
Wanna post a correction for this tab? Suggest correction