Oops, an error
Loading. Please wait.

Por Eso Vive Así bass

14 views 1 this week
no commentswrite comment
1 2 3 4 5
3 more votes to show rating
add to favorites
×
Save as Personal and add changes to this tab that will be seen only by you. Learn more ›
×
You can save this tab as Personal to edit and correct it or add notes. All changes will be seen only by you. Learn more »
launch autoscroll
font size
0
reset
guitar tuner
edit
Autoscroll
slow
fast
+/-
esc
set tempo
stop
 Fig. 1 


4.- --2--------4-2-0-2-2-22-0-2-------------
3.- ----0-2-0-------------------------------
2.- ----------------------------------------
1.- ----------------------------------------

Fig. 2

4.- --2?2?222--0-5?5?555------------5-3-2-0-5-3-2-0-
3.- ---------------------------------5-5 -555-------
2.- ------------------------------------------------
1.- ------------------------------------------------

Fig.3

4.- --2-2-222-0-5-5-555------------------------
3.- -------------------7-7-777-7-7-7-5-4-2-----
2.- --------------------------------------------
1.- --------------------------------------------

Fig.4

4.- --2-2-222-0-2-2-5-2-0-2-2-222-5-5-555------------------------------
3.- ------------------------------------------------7-7-777-7-7-7-5-4-2
2.- -------------------------------------------------------------------
1.- -------------------------------------------------------------------

Fig.5

4.- -----------5-5-555-----------5-5-555-------------------2-2-222-0-2-2--------4-2-0-2-2-22-0-2
3.- -5-5-555-----------5-5-555-----------7-7-775-7------------------------0-2-0-----------------
2.- --------------------------------------------------------------------------------------------
1.- --------------------------------------------------------------------------------------------

INTRO:  1(x3)

  2
Creció en la calle haciendo malabares

En el cruce de algún eje vial,
2
Fue el resultado de un embarazo

Que nunca fue deseado jamás.

  2
Y aprendió:

A mitigar su hambre

Con solo unas migajas de pan,
 3
Y aprendió:

A soportar el frió

En un rincón en soledad, ah ahah?

 4
Por eso vive así:

Soñando una familia y un hermoso lugar
4
Por eso vive así:

Soñando el día en que una estrella él podrá bajar
5
Pero el tiempo pasa y él sigue igual

Ya se ha cansado de mendigar

Y desde hoy?

 Aprendió a robar.

SOLO:
2
Creció en la calle

Limpiando los cristales de los coches

En algún eje vial,
 2
Fue atrapado por malas amistades

Que nunca supo rechazar,

 2
Y aprendió:

A matar su hambre y su cuerpo con cemento y alcohol,
 3
Y aprendió:

A soportar el frió fumando marihuana

En aquel rincón, ah ah ah?.

4
Por eso vive así:

Alucinando mil maneras

 Para no vivir más,
 4
Por eso vive así:

Nunca sabrá que a las estrellas

No se puede llegar.

5
Por que el tiempo pasa y él sigue igual,

Muriendo fuera de realidad por que hoy?

Ha  caído en las drogas.

Por eso vive así : (x 2)

Ha caído en la droga (x 3)
Suggest correction
Creating personal tab
Creating personal tab
You can edit any tab online and save it as your Personal.

You can edit, replace or remove any tab part or add personal notes – all changes will be seen only by you.

Personal tabs can be accessed anytime from any device, even offline.
Learn more »
Give kudos to tab author, rate the tab!
1 2 3 4 5
comments
print report bad tab
guest
Wanna post a correction for this tab? Suggest correction