Oops, an error
Loading. Please wait.
94 views 1 this week
1 commentread comment
1 2 3 4 5
2 more votes to show rating
add to favorites
×
Save as Personal and add changes to this tab that will be seen only by you. Learn more ›
×
You can save this tab as Personal to edit and correct it or add notes. All changes will be seen only by you. Learn more »
launch autoscroll
font size
0
reset
how to read this tab
guitar tuner
edit
Autoscroll
slow
fast
+/-
esc
set tempo
stop
Intro

e|-5-5-5-5-7-7-7-7s9-9-9-8
B|------------------------
G|------------------------


   D                    Em      G     Em      G
e|-5-5-5-5-7-7-7-7s9-9-9-8--5-5-5-5-3-3-3-3-5-5-5-5-3-3-3-3
B|---------------------------------------------------------
G|---------------------------------------------------------


   D
Jugando al cíclope

nos miramos otra vez
                 Em
y tus ojos se agrandan,
               G
lentamente resbalan


          D
Hasta el humo del café

que el insomnio nos trae,
                 Em
reventado en la cama,
               G
pronto será mañana


F#m               Em
    Frente al Sol    hablaremos del amor
F#m           G
    sin saber   que te quiero y me quieres


   D
e|-5-5-5-5-7-7-7-7s9-9-9-8
B|------------------------
G|------------------------


   D                    Em      G     Em      G
e|-5-5-5-5-7-7-7-7s9-9-9-8--5-5-5-5-3-3-3-3-5-5-5-5-3-3-3-3
B|---------------------------------------------------------
G|---------------------------------------------------------


   D
Invades mi cuartel,

tu lengua está en mi piel
                Em
y tu boca se agranda,
               G
lentamente resbala


F#m               Em
    Frente al sol    hablaremos del amor
F#m           G
    sin saber   que te quiero y me quieres


D                                      G
  Y es que no ves que ha llegado el momento,
D                                       G
  ¿Por qué no crees lo que estamos sintiendo?


F#m         Em
    Sólo sé    que en tu boca calmé mi sed,
F#m          G
    pude ver   el futuro en tu vientre


e|-5-5-5-5-7-7-7-7s9-9-9-8
B|------------------------
G|------------------------


   D                    Em      G     Em      G
e|-5-5-5-5-7-7-7-7s9-9-9-8--5-5-5-5-3-3-3-3-5-5-5-5-3-3-3-3
B|---------------------------------------------------------
G|---------------------------------------------------------


Bm A# Bm A# G


D                                      G
  Y es que no ves que ha llegado el momento,
D                                       G
  ¿Por qué no crees lo que estamos sintiendo?


F#m         Em
    Sólo sé    que en tu boca calmé mi sed,
F#m          G
    pude ver   el futuro en tu vientre.


***********************************************************************
Ojo con los tiempos, sólo es cuestión de escuchar bien la canción.

            
            
Suggest correction
Creating personal tab
Creating personal tab
You can edit any tab online and save it as your Personal.

You can edit, replace or remove any tab part or add personal notes – all changes will be seen only by you.

Personal tabs can be accessed anytime from any device, even offline.
Learn more »
Give kudos to tab author, rate the tab!
1 2 3 4 5
comments
print report bad tab
1 comment total.
0 reply
emillrock.ep 10 Feb 29, 2016 03:48 PM

Gracias!!

guest
Wanna post a correction for this tab? Suggest correction