Oops, an error
Loading. Please wait.

Dentro De Mí tab

6 views 1 this week
no commentswrite comment
1 2 3 4 5
3 more votes to show rating
add to favorites
×
Save as Personal and add changes to this tab that will be seen only by you. Learn more ›
×
You can save this tab as Personal to edit and correct it or add notes. All changes will be seen only by you. Learn more »
launch autoscroll
font size
0
reset
how to read this tab
guitar tuner
edit
Autoscroll
slow
fast
+/-
esc
set tempo
stop

Gm    F    Eb    Bb x2
e|-----------------------------------------------
B|--------------------------3/4-3---------------
G|------3-5-3-------3/5----------3-3----------
D|-3-5-----------5------------------------------
A|------------------------------------------------
E|------------------------------------------------

Gm    F    Eb    Bb
Cuando me siento desgarrada
Eb     Bb    F      Bb
llegas tu y eso se va
Llenalo todo con palabras
susurrame una vez mas

Eb                            F
tengo miedo de que acabes
Bb        F      Gm       E|---3--5--6
sin respiracion
Eb                           F
tanto bien no se si cabe

Gm    F    Eb    Bb
dentro de mi mi amor
e|------------------------------------------------
B|------------------------------------------------
G|----------3-------------5-5/7-5-3------------
D|-----3/5---------------------------------------
A|------------------------------------------------
E|------------------------------------------------
Gm    F    Eb    Bb
dentro de mi dentro de mi
A|---------------5/6-5---------------------------
E|-----------------------6-6----------------------

Gm    F
surururu pha
Eb    Bb
surururu pha
Gm    F
surururu pha
Eb    Bb
suru

siento que solo cuando callas
pueden llevarse lo que soy
e|------------------------------------------------
B|-------------------------------3---3-6-3------
G|---------------------------------5--------5-3--

vamos tanteando la mañana
e|------------------------------------------------
B|-----------------------------------3-3/4-3-----
G|--------------------------------5-----------3--
tu cuerpo es mi almohada, mi colchon

tengo miedo de que acabes
sin respiracion
tanto bien no se si cabe

dentro de mi mi amor
dentro de mi dentro de mi

Solo
Gm    F    Eb    Bb x4
e|-----------------------------------------------
B|--------------------------3/4-3---------------
G|------3-5-3-------3/5----------3-3----------
D|-3-5-----------5------------------------------

e|------------------------------------------------
B|-3/4-3/4-3/4-3/4-3--------------------------
G|-----------------------3---------3---3--------
D|-----------------------------3/5---------------

e|------------------------3-3/6-8---8-10-8---------------------------
B|-----------------3-3/6--------------------11-8-----8--8-----8-11-11
G|----3-5-3--3/5---------------------------------10-------10---------
D|3-5----------------------------------------------------------------

e|---8-10-8-----8-10-8-----8-10-8------10-8--------8--------
B|-----------11----------11----------11---------11-8----11-8-
G|-----------------------------------------------------------------
D|-----------------------------------------------------------------

Eb              Dm           Gm   F   Bb  Dm
toma mi alma hasta el ultimo rincon
Eb              Dm           Gm            F        C
somos dos balas mas perdidas en las entrañas
            Eb  C    Bb
de nuestra prision

dentro de mi mi amor
dentro de mi dentro de mi

surururu pha
surururu pha
Gm           F
dentro de mi
Suggest correction
Creating personal tab
Creating personal tab
You can edit any tab online and save it as your Personal.

You can edit, replace or remove any tab part or add personal notes – all changes will be seen only by you.

Personal tabs can be accessed anytime from any device, even offline.
Learn more »
Give kudos to tab author, rate the tab!
1 2 3 4 5
comments
print report bad tab
guest
Wanna post a correction for this tab? Suggest correction