Oops, an error
Loading. Please wait.

25 Años tab

50 views 3 this week
no commentswrite comment
1 2 3 4 5
3 more votes to show rating
add to favorites
×
Save as Personal and add changes to this tab that will be seen only by you. Learn more ›
×
You can save this tab as Personal to edit and correct it or add notes. All changes will be seen only by you. Learn more »
launch autoscroll
font size
0
reset
how to read this tab
guitar tuner
edit
Autoscroll
slow
fast
+/-
esc
set tempo
stop
****************************************************************************************
* LA SIGUIENTE CANCIÓN CONTIENE LOS ADORNOS A DOS GUITARRAS, DE HECHO,SUENAN           *
* IGUAL, PERO POR SI SE LES DIFICULTA TOCAR UN ADORNO, PUEDEN TOCAR OTRO QUE           *
* ES EXACTAMENTE IDÉNTICO,DE HECHO, NO TODOS SON DIFERENTES QUIERO ACLARAR.            *
*                                                                                      *  
* BUENO, PARA QUE ENTIENDAN UN POCO MEJOR DÉJENME LES DIGO QUE: A CADA RIFF LE         *
* PUSE '1a' Y '2a' INDICANDO CON ESTO QUE ESTOY HACIENDO REFERENCIA A LA PRIMERA       * 
* O A LA SEGUNDA GUITARRA. ADEMÁS, CADA RIFF TIENE SU ACOMPAÑAMIENTO, POR LO QUE       *
* ESO PUEDE SER ALGO DESASTROZO DEBIDO A QUE, SI QUIEREN TOCAR LA CANCIÓN COMPLETA,    *
* TENDRÍAN QUE APRENDERSE TODOS LOS RIFFS PORQUE VAN MUY LIGADOS A LA MELODÍA DE LA    *
* CANCIÓN , PERO BUENO, NO ES TAN DIFÍCIL PORQUE SI USTEDES NO QUIEREN APRENDERLOS,    *
* EL ACOMPAÑAMIENTO ES DE LO MÁS FÁCIL Y NO SON NOTAS ASÍ QUE DIGAMOS MUY COMPLICADAS. *   
* ADEMÁS,SI TIENEN LA CANCIÓN SÓLO ES CUESTIÓN DE HECHARLE OREJA Y ASÍ NADA MÁS VAN    *
* ACOMPLETANDO LO QUE QUIERAN.                                                         *   
****************************************************************************************


BUENO, MIENTRAS TANTO PASEMOS A LOS ADORNOS:

INTRO: el Intro está compuesto por dos RIFFS, por eso especificaré cuáles son, porque en 
la canción se va tocando uno de ellos a lo largo de la melodía:

Nota: el INTRO es el RIFF 1 tocado junto el RIFF 2 ...


RIFF 1:   este va primero ...

        DOm                 DO7        FAm              LA#                                RE#
    6|-----------------------------------------------------------------------------------------------
    5|-----------------------------------------------------------------------------------------------
1a  4|-----------------------------------------------------------------------------------------------  
    3|--------------------------------------------------------------------------------------3--3--3--
    2|--------------4--3---------------4--3--4--4--1-------4----4---3--1-----4-----4--3--1-----------
    1|--3--1--3--1---------3--1--3--1-------------------1-----1-----------1-----1--------------------

      
    6|-----------------------------------------------------------------------------------------------
    5|-----------------------------------------------------------------------------------------------
2a  4|--------------------------------------------------------------------------------------8--8--8--
    3|--------------8--7---------------8--7--8--8--5-------8-----8--7--5-----8-----8--7--5-----------
    2|--8--6--8--6---------6--8--6--8-------------------6-----6-----------6-----6--------------------
    1|-----------------------------------------------------------------------------------------------


RIFF 2:   y este va inmediatamente después del anterior...

      SOL                 SOL#                SOL       SOL7           DOm
    6|-3---------3---------4---------4---------3---------3----------------------------------------|
    5|--------------------------------------------------------------------------------------------|
1a  4|--------------------------------------------------------------------------------------------|
    3|---4---4-----4---4-----5---5-----5---5-----4---4-----4---4----------------------------------|
    2|----3-3-------3-3-------4-4-------4-4-------3-3-------3-3--------12--12--13--13--12--12--10-|
    1|-----3---------3---------3---------3---------3---------3---------10--10--11--11--10--10---9-|


    6|-3---------3---------4---------4---------3---------3----------------------------------------|
    5|--------------------------------------------------------------------------------------------|
2a  4|--------------------------------------------------------------------------------------------|
    3|---4---4-----4---4-----5---5-----5---5-----4---4-----4---4--------7---7---8---8---7---7---5-|
    2|----3-3-------3-3-------4-4-------4-4-------3-3-------3-3---------6---6---8---8---6---6---4-|
    1|-----3---------3---------3---------3---------3---------3------------------------------------|


*El RIFF2 se toca en algunas partes a lo largo de la canción como un adorno de fondo. 
Esto significa que sólamente en el inicio de la canción y en la parte del poema, se 
toca el INTRO (RIFF1 + RIFF2) completo.

...............................................................


RIFF 3:

    6|---------------------|
    5|---------------------|
1a  4|---------------------|
    3|---------------------|
    2|--6---8---9----------|
    1|--4---6---8----------|

    6|---------------------|
    5|---------------------|
2a  4|---------------------|
    3|---------------------|
    2|--9---8---6----------|
    1|--8---6---4----------|

..........................................................

RIFF 4:

    6|---------------------|
    5|---------------------|
1a  4|---------------------|
    3|---------------------|
    2|--4---6---8----------|
    1|--3---4---6----------|

    6|---------------------|
    5|---------------------|
2a  4|---------------------|
    3|---------------------|
    2|--8---6---4----------|
    1|--6---4---3----------|

.........................................................

RIFF 5:
                            SOL                  DOm
    6|-------------------------------------------------|
    5|-------------------------------------------------|
1a  4|-----------------------5-----4--5----------------|
    3|-----------7--5--4--4--------------7-----7--5----|
    2|--4--6--4-----------------------------4----------|
    1|-------------------------------------------------|


    6|-------------------------------------------------|
    5|-------------------------------------------------|
2a  4|-----------------------------4-------------------|
    3|-----------------------0--------0-----------5----|
    2|--4-----4--3--1--0--0--------------3--4--3-------|
    1|-----1-------------------------------------------|

  *Este es al final de la canción
...............................................................................


Ojalá le entiendan a la canción, los acordes no están difíciles,pero por si las dudas aquí están:

                DOm     DO7     FAm     LA#     RE#     SOL     SOL#   SOL7   /
             |---3---.---3---.---1---.---1---.---6---.---3---.---4---.---3---|:6   _
           |---3---.---3---.---3---.---1---.---6---.---5---.---6---.---5---|:5  (_
           |---5---.---5---.---3---.---3---.---8---.---5---.---6---.---3---|:4
           |---5---.---3---.---1---.---3---.---8---.---4---.---5---.---4---|:3   _
           |---4---.---5---.---1---.---3---.---8---.---3---.---4---.---3---|:2  (_
           |---3---.---3---.---1---.---1---.---6---.---3---.---4---.---3---|:1
Cejillas         |       |       |       |       |       |       |       |    \ 
en trastes -->   3       3       1       1       6       3       4       3     


....................................................................................


AHORA SÍ, VAMOS CON LA CANCÍON:


INTRO completo y ACOMPAÑAMIENTO.. (osea, RIFF1 Y RIFF2 juntos)


                DOm       DO7             FAm   RIFF3
Quisiera que mi vida regresara hacia el pasado
                 LA#                    RE#  RIFF4
veinticinco años menos y volverte a conocer
               SOL                 SOL#    SOL       SOL7        DOm
te pediría de nuevo que fueras mi mujer.


                DOm          DO7             FAm   RIFF3
Vivir veinticinco años, como los que ya he vivido
               LA#                         RE#   RIFF4
con tantos sinsabores de nostalgia y de placer
               SOL                  SOL#  SOL     SOL7           DOm
amarnos tiernamente hasta que quiera Dios.


INTRO completo y ACOMPAÑAMIENTO.. (osea, RIFF1 Y RIFF2 juntos)

'Me parece tan poco lo que te he brindado...
Y se me hace tan corto el tiempo para agradecerte
tantas cosas, tanta dicha, tanta felicidad...
MI Amor...'


                     DOm     DO7           FAm  RIFF3
Si el mundo a mí me diera la dicha y la fortuna
               LA#                 RE#   RIFF4
de todas las mujeres poder una escoger
             SOL                  SOL#  SOL       SOL7          DOm
para hacerte mi amante, mi novia y mi mujer


                DOm          DO7             FAm   RIFF3
Vivir veinticinco años, como los que ya he vivido
               LA#                         RE#   RIFF4
con tantos sinsabores de nostalgia y de placer
               SOL                  SOL#  SOL     SOL7           DOm   RIFF5
amarnos tiernamente hasta que quiera Dios.


*Bueno, la verdad no está muy complicada la canción, porque si ya se dieron cuenta, 
el acompañamiento para el INTRO es exactamente el mismo para todas las demás partes 
de la canción, así que sólo es cuestión de aprenderse eso y ya.

Espero que les haya gustado la canción,trataré de que todas las peticiones que me 
hagan personalmente,lleguen al  para que estén disponibles para todos los
que pasen por estas páginas.Sólo una cosita más, ya saben, dénme un poco de chance 
y tiempo porque a veces ando medio atareado y no puedo responderles de inmediato.

Mando un abrazo a la Rondalla 'Voces' de Tapachula Chiapas, a todos ellos...
(Pupo,Inti,Zuca,La Púa,Kaio,Gokú y 'babys',Juanchi,Oscar y 'carito',Chapulín,
Rata,Pericos:Benja y Chuy,Abuelo,y a todos los que algún día fueron 'Voces')

Bytes¡¡

            
            
Suggest correction
Creating personal tab
Creating personal tab
You can edit any tab online and save it as your Personal.

You can edit, replace or remove any tab part or add personal notes – all changes will be seen only by you.

Personal tabs can be accessed anytime from any device, even offline.
Learn more »
Give kudos to tab author, rate the tab!
1 2 3 4 5
comments
print report bad tab
guest
Wanna post a correction for this tab? Suggest correction