Oops, an error
Loading. Please wait.

Cómo tab

version 3
version 3

Whole song

29 views 3 this week
no commentswrite comment
1 2 3 4 5
3 more votes to show rating
add to favorites
×
Save as Personal and add changes to this tab that will be seen only by you. Learn more ›
×
You can save this tab as Personal to edit and correct it or add notes. All changes will be seen only by you. Learn more »
launch autoscroll
font size
0
reset
how to read this tab
guitar tuner
edit
Autoscroll
slow
fast
+/-
esc
set tempo
stop
Espero que les guste

2 3-----------3-2-2-3-4---------4-3-4-5---------5-4-5-6
1 --9-8-8-7-7-----------8-8-7-7---------8 8 7 7--------

2 6-5-6-5------------------------------------------------
1 --------10-10-8-8-7-5-3-2-12-12-10-10-8-8-8-8-7-5-3-2-3

G                    B7
COMO IMAGINAR QUE LA VIDA SIGUE IGUAL

 Em                       G7
COMO SI TUS PASOS YA NO CRUZAN EL PORTAL

 C          Cm  G          E
COMO PRETENDER, ESTA REALIDAD

 Am                            Cm  D7
COMO SI HASTA AYER BRILLABA EL SOL EN TU MIRAR

G                   B7
COMO CONSOLAR A LA ROSA Y AL JAZMIN

 Em                     G7
COMO SI TU RISA YA NO SE OYE EN EL JARDIN

C              Cm           G         E7
COMO HE DE MENTIRLES QUE MAÑANA VOLVERAS

Am          D7             G  D7
COMO DESPERTAR SI TU NO ESTAS
2 3-----------3-2-2-3-4---------4-3-4-5---------5-4-5-6
1 --9-8-8-7-7-----------8-8-7-7---------8 8 7 7--------

2 6-5-6-5------------------------------------------------
1 --------10-10-8-8-7-5-3-2-12-12-10-10-8-8-8-8-7-5-3-2-3
G                   B7
COMO CONSOLAR A LA ROSA Y AL JAZMIN

 Em                     G7
COMO SI TU RISA YA NO SE OYE EN EL JARDIN

C              Cm           G         E7
COMO HE DE MENTIRLES QUE MAÑANA VOLVERAS

Am          D7             G  D7
COMO DESPERTAR SI TU NO ESTAS


1|---3-3-2-|---3-3-2-|---3-3-2-5-|
2|---3-3-3-|---3-3-3-|---3-3-3-3-|
3|-2-------|-2-------|-2---------|

se la dedico a mi papa que siempre esta conmigo.
Si no les gusta manden un mail a wallas_cid@

            
            
Suggest correction
Creating personal tab
Creating personal tab
You can edit any tab online and save it as your Personal.

You can edit, replace or remove any tab part or add personal notes – all changes will be seen only by you.

Personal tabs can be accessed anytime from any device, even offline.
Learn more »
Give kudos to tab author, rate the tab!
1 2 3 4 5
comments
print report bad tab
guest
Wanna post a correction for this tab? Suggest correction