Oops, an error
Loading. Please wait.

Cómo chords

version 4
version 4

Whole song

25 views 1 this week
no commentswrite comment
1 2 3 4 5
3 more votes to show rating
add to favorites
×
Save as Personal and add changes to this tab that will be seen only by you. Learn more ›
×
You can save this tab as Personal to edit and correct it or add notes. All changes will be seen only by you. Learn more »
launch autoscroll
font size
0
reset
transpose
0
reset
simplify chords
display chords
guitar tuner
edit
Autoscroll
slow
fast
+/-
esc
set tempo
stop
Strumming
There is no strumming pattern for this song yet. and get +5 IQ
GARCIA CADENAS BRYAN misterio_no.1@


1|---8-8-7-7-|---------8-7-|---------8-7-|-----------9--8-|
2|---8-8-8-8-|---------7-7-|---------8-8-|-----------9--9-|
3|-7---------|-7-6-7-8-8-8-|-8-7-8-9-9-9-|-9-8-9-10-10-10-|
4|-----------|-------------|-------------|----------------|
5|-----------|-------------|-------------|----------------|
6|-----------|-------------|-------------|----------------|


1|------------|-10-10-10-|--8--8--8-|-7-5-3-2-|-12-12-12-|-10-10-|
2|------------|-12-12-12-|-10-10-10-|-8-7-5-3-|-13-13-13-|-12-12-|
3|-10-9-10-11-|----------|----------|---------|----------|-------|
4|------------|----------|----------|---------|----------|-------|
5|------------|----------|----------|---------|----------|-------|
6|------------|----------|----------|---------|----------|-------|


1|--8--8-7-5-3-|-5-7-8-10-8-7-|
2|-10-10-8-7-5-|-7-8-8--8-8-8-|
3|-------------|--------------|
4|-------------|--------------|
5|-------------|--------------|
6|-------------|--------------|

REQUINTO
G-B7-Em-Dm-G7-C-Cm-Bm-E7-Am-D7-G-Cm-G


    G                     B7
        Cómo imaginar que la vida sigue igual
    Em                         Dm           G7
        Cómo si tus pasos ya no cruzan el portal
    C               Cm   Bm     E7
        Cómo pretender esta realidad
        Am             D7             G           Cm     G
        Cómo si hasta ayer brillaba el cielo en tu mirar.

EN ESTO ESTO QUE SIGUE ES SOLISTA Y EL CORO ES RU-RURURU-RURURU-
RURURU-RURURU-RU-RURURU-RURURU
    G                      B7
        Cómo consolar a la rosa y al jazmín
    Em             Dm             G7
Cómo si tu risa ya no se oye en el jardín
    C         Cm           Bm        E7
Cómo he de mentirles que mañana volverás
Am         D7 G              Cm     G
Cómo despertar si tú no estás.

REQUINTO

G-B7-Em-Dm-G7-C-Cm-Bm-E7-Am-D7-G-Cm-G


    G                    B7
        Cómo consolar a la rosa y al jazmín
    Em             Dm             G7
Cómo si tu risa ya no se oye en el jardín
    C             Cm      Bm        E7
Cómo he de mentirles que mañana volverás
    Am    D7            G-B7-Em
Cómo despertar si tú no estás.

Parasen Re7 y en la parte del final donde dice 'estás'
va lo siguiente requinto o acordes como gusten
G-B7-Em
1|---3-3-2-|---3-3-2-|---3-3-2-5-|
2|---3-3-3-|---3-3-3-|---3-3-3-3-|
3|-2-------|-2-------|-2---------|
4|---------|---------|-----------|
5|---------|---------|-----------|
6|---------|---------|-----------|
Suggest correction
Creating personal tab
Creating personal tab
You can edit any tab online and save it as your Personal.

You can edit, replace or remove any tab part or add personal notes – all changes will be seen only by you.

Personal tabs can be accessed anytime from any device, even offline.
Learn more »
Give kudos to tab author, rate the tab!
1 2 3 4 5
comments
print report bad tab
guest
Wanna post a correction for this tab? Suggest correction