Oops, an error
Loading. Please wait.

Enséñame A Querer tab

25 views 1 this week
no commentswrite comment
1 2 3 4 5
3 more votes to show rating
add to favorites
×
Save as Personal and add changes to this tab that will be seen only by you. Learn more ›
×
You can save this tab as Personal to edit and correct it or add notes. All changes will be seen only by you. Learn more »
launch autoscroll
font size
0
reset
how to read this tab
guitar tuner
edit
Autoscroll
slow
fast
+/-
esc
set tempo
stop
La canción lleva capo en el 1° traste,
por lo tanto para sacar el requinto
que viene a continuación,
se cuenta del 2° traste en adelante.


1|---7---7---7-9--10--|---------------7-9--|------
2|--------------------|--10---10---10------|------
3|--------------------|--------------------|------
4|--------------------|--------------------|------
5|--------------------|--------------------|------
6|--------------------|--------------------|------


1|----------------7-------------------------------
2|---8---8---8-10-----10---8----------------------
3|-----------------------------6-7----------------
4|------------------------------------------------
5|------------------------------------------------
6|------------------------------------------------

Una canción más de la Rondalla de Saltillo
lleva CAPO EN EL 1° TRASTE,
después subiré el requinto,
dudas o aclaraciones a mi correo por favor.

Nota: Todos los acordes se hacen un solo tiempo,
         excepto los que están en paréntesis.
Intro:

G-Gm-F#m-B7-Em-A7

Este es un arreglo que se hace seguido del requinto
  D-D5-Dsus4-D


   D-Dmaj7-D6-Dmaj7-D
Enséñame a querer

de nueva cuenta
                   F#dim7
pues ha pasado el tiempo
         Em-A7
y lo olvide
 Em-A7
hubo otros amores
         Em-A7
que se fueron
   G          Gm
y no dejaron huella
         D-D5-Dsus4-D
de su andar.


   D-Dmaj7-D6-Dmaj7-D
Enséñame a vivir

enamorado

pues eso nunca,
 F#dim7     Em-A7
nunca lo sentí
     G          Gm
quisiera ya cambiar
          D   B7
junto contigo
   Em          A7
enséñame a sentir
            D-D5-Dsus4-D
lo que es amar.


    A#        C
Extraño me parece
         (F)
que te ocupes
    Em       A7
de cómo estoy
            (D)
o que hice ayer
  (E)
motivas en mi corazón
    (A)
el fuego
     E              E7
que hace ya mucho tiempo
     (A7)
se apagó.


G-Gm-F#m-B7-Em-A7-D


    A#        C
Extraño me parece
        (F)
que te ocupes
    Em       A7
de cómo estoy
            (D)
o que hice ayer
  (E)
motivas en mi corazón
    (A)
el fuego
     E              E7
que hace ya mucho tiempo
     (A7)
se apagó.


   D-Dmaj7-D6-Dmaj7-D
Enséñame a querer

y te prometo
               F#dim7
que de mi lado nunca
          Em-A7
te has de ir,
    G            Gm
mi vida sin tu amor
            D    B7
no ha sido vida
   Em          A7
enséñame a querer,
   F#m         B7
enséñame a querer,
   Em          A7
enséñame a querer
         A#-D.(en A# y D se hace dos tiempos
                en c/u y termina con un rsgeuo en D)
una vez más.


Aquí les dejo los acordes que no conozcan:


          Dmaj7
1|------|---1---|------|------
2|------|---1---|------|------
3|------|---1---|------|------
4|------|-------|------|------
5|------|-------|------|------
6|------|-------|------|------

          D6=Bm7
1|------|---2---|------|------
2|------|-------|------|------
3|------|---1---|------|------
4|------|-------|------|------
5|------|-------|------|------
6|------|-------|------|------
Este acorde es re6 o también lo conocen
como simenor7 (en la misma posición),
la única diferencia es que con simenor7
se tocan nada más de la primera a la cuarta cuerda
y con re6 de la primera a la quinta.
Pero en rondalla siempre tocan todas (normal).

            D5
1|------|-------|-------|------
2|------|-------|---3---|------
3|------|---1---|-------|------
4|------|-------|-------|------
5|------|-------|-------|------
6|------|-------|-------|------

          Dsus4
1|------|-------|---4---|------
2|------|-------|---3---|------
3|------|---1---|-------|------
4|------|-------|-------|------
5|------|-------|-------|------
6|------|-------|-------|------

            F#dim7
1|-----|-----|-----|-----|--4--
2|-----|-----|-----|--2--|-----
3|-----|-----|-----|-----|--3--
4|-----|-----|-----|--1--|-----
5|-----|-----|-----|-----|-----
6|-----|-----|-----|-----|-----


Saludos a la "Rondalla Amor Adolescente" de Coscomatepec,Ver
Ya Rodrigs regresa,     pero con winne jajajajajajajajajajajaja
Suggest correction
Creating personal tab
Creating personal tab
You can edit any tab online and save it as your Personal.

You can edit, replace or remove any tab part or add personal notes – all changes will be seen only by you.

Personal tabs can be accessed anytime from any device, even offline.
Learn more »
Give kudos to tab author, rate the tab!
1 2 3 4 5
comments
print report bad tab
guest
Wanna post a correction for this tab? Suggest correction