Oops, an error
Loading. Please wait.

La Gloria Eres Tú tab

version 1
version 1

Whole song

40 views 1 this week
no commentswrite comment
1 2 3 4 5
3 more votes to show rating
add to favorites
×
Save as Personal and add changes to this tab that will be seen only by you. Learn more ›
×
You can save this tab as Personal to edit and correct it or add notes. All changes will be seen only by you. Learn more »
launch autoscroll
font size
0
reset
how to read this tab
guitar tuner
edit
Autoscroll
slow
fast
+/-
esc
set tempo
stop
ok...

Inicia con uhturururur o algo asi? bueno esa parte es la basica 
y solo siguen estos acordes tal y como se escucha y cambia el 
tono de la cancion, solo al inicio ok?

A F#m G#m G# F#m Dm E7  ( solo el coro del principio )

'Eres mi bien...
..que es toda sentimiento...' ( requinto ) 

E--5-4-3-2-0-----I
B------------3-2-I
G----------------I
D----------------I
A----------------I 
E----------------I


'De esos ojazos negros...' 
(Durante toda esta estrofa se requintea esta parte 
en la segunda cuerda 'B' 7657987652 y su tercera?)


'...esta en el cielo...' ( el requinto de esta parte 99775 con algunas variaciones )


'..el consuelo al morir' ( requinto )

E-0-------I
B--2------I
G---2-1-1-I
D---------I
A---------I
E---------I


REQUINTO DE INTERMEDIO :

E-9--7-9--7-9--7-9--7-I-7------7------7------7---I
B--10---10---10---10--I---9-10---9-10---9-10---9-I
G---------------------I--------------------------I
D---------------------I--------------------------I
A---------------------I--------------------------I
E---------------------I--------------------------I

E--------------I-------------I
B-10-9-7-------I-------7--10-I
G--------9-7---I-9-6-9-------I
D------------9-I----------11-I
A--------------I-------------I
E--------------I-------------I


E--5-4-3-2-0-----I
B------------3-2-I
G----------------I  ( A 2 GUITARRAS )
D----------------I
A----------------I 
E----------------I


'...esta en el cielo...' ( el requinto de esta parte 99775 con algunas variaciones )


E--5-4-3-2-0-----I
B------------3-2-I
G----------------I  
D----------------I
A----------------I 
E----------------I


( FINAL )
E---0--2--0----I
B-2---2--2---2-I
G----------2---I
D--------------I
A--------------I
E--------------I


Gracias gracias, gracias ...:D!
Suggest correction
Creating personal tab
Creating personal tab
You can edit any tab online and save it as your Personal.

You can edit, replace or remove any tab part or add personal notes – all changes will be seen only by you.

Personal tabs can be accessed anytime from any device, even offline.
Learn more »
Give kudos to tab author, rate the tab!
1 2 3 4 5
comments
print report bad tab
guest
Wanna post a correction for this tab? Suggest correction