Oops, an error
Loading. Please wait.

La Gloria Eres Tú tab

version 2
version 2

Whole song

187 views 1 this week
no commentswrite comment
1 2 3 4 5
3 more votes to show rating
add to favorites
×
Save as Personal and add changes to this tab that will be seen only by you. Learn more ›
×
You can save this tab as Personal to edit and correct it or add notes. All changes will be seen only by you. Learn more »
launch autoscroll
font size
0
reset
how to read this tab
guitar tuner
edit
Autoscroll
slow
fast
+/-
esc
set tempo
stop
***********************************************************************************************
* Hola de nuevo!!!                                                                            *
*                                                                                             *
* Ahora nos encontramos con esta canción,que aunque ya está transcrita, se las envío con      *
* todo y los requintos ,así que no tienen que enviarme un correo por si los kieren jeje..     *
* La verdad estuve escuchando muchas veces la rola (digo, hay otros que las transcriben sin   *
* haberla escuchado y sin guitarra... :S, y yo pos nomás no)y me dí cuenta que la canción que *
* estaba antes de ésta tenía algunos errores; Bueno, ésta también tiene,porque no me decidía  *
* entre los acordes del tercer párrafo, así que si no se escucha bien, le cambian unas cosas, *
* pero creo ke no se escucha tan feo...                                                       *
* Bueno,espero que estos TABS les sirvan, digo, a veces uno se interesa más por los requintos *
* que por los acordes, asi que, no se preocupen, esos si los puse bien (creo , :P)            *
***********************************************************************************************


AQUÍ ESTÁN LOS RIFFS CON SUS RESPECTIVOS ACOMPAÑAMIENTOS:
...................................................................................

RIFF1:
          LA7
6|------------------------|
5|------------------------|
4|------------------------|
3|-----------------4--2---|
2|--7--6--5--3--2--3--2---|
1|--5--4--3--2--0---------|

 *Este RIFF pueden tocarlo a dos cuerdas o a una cuerda( de preferencia la primera);


------------------------------------------------------------------------------------

RIFF2:

   RE         REm                        LA         SIm             DO#m  
6|----------------------------------------------------------------------------------
5|----------------------------------------------------------------------------------
4|----------------------------------------------------------------------------------
3|----------------------------------------------------------------------------------
2|----------------------------------------------------------------------------------
1|-2-2-2-2-2--1-1-1-1-1--12-12-12-12-12--9-9-9-9-9--10-10-10-10-10--12-12-12-12-12--

   DOm             SIm             REm             MI7  -  LA
6|---------------------------------------------------------------------------------|
5|---------------------------------------------------------------------------------|
4|---------------------------------------------------------------------------------|
3|---------------------------------------------------------------------------------|
2|---------------------------------------------------------------------------------|
1|-11-11-11-11-11--10-10-10-10-10--13-13-13-13-13--12-12-12-12-12-12-12------------|

 *Este RIFF se toca a lo largo del segundo párrafo de la canción.


------------------------------------------------------------------------------------

RIFF3:
          FA#m-FAm-FA#m
6|------------------------|
5|------------------------|
4|------------------------|
3|------------------------|
2|-5---5---3----3----2----|
1|-4---4---2----2----0----|

------------------------------------------------------------------------------------

RIFF4:

             
6|------------------------|
5|------------------------|
4|------------------------|
3|-------2---1--1---------|
2|----2-------------------|
1|-0----------------------|

------------------------------------------------------------------------------------

RIFF5:
    RE                 REm                     LA       SIm       DO#m          DOm   SIm
6|------------------------------------------------------------------------------------------
5|------------------------------------------------------------------------------------------
4|------------------------------------------------------------------------------------------
3|------------------------------------------------------------------------------------------
2|------------------------------------------------------------------------------------------
1|--9---5--7--9----5---7--9--5--7--9--5--7-----7---4--5--7---4--5--7--4---5--7---4----------

                     REm   MI7       LA              LA7
6|------------------------------------------------------------------------------------------|
5|------------------------------------------------------------------------------------------|
4|------------------------------------------------------------------------------------------|
3|----------------4-----------------------------------------------4---2---------------------|
2|----------3--2--------------2---------------7---6---5---3---1---3---2---------------------|
1|-5--4--3-----------------0-----0--2--5------5---4---3---2---0-----------------------------|


 *Este es el adorno principal de la canción...
-----------------------------------------------------------------------------------


RIFF6:
                        LA
6|-------------------------|
5|-------------------------|
4|-------------------------|
3|-------------------------|
2|-2-----2-----2-----------|
1|----0-----2-----0--4--5--|
 
 *Este es el del final de la canción.

-----------------------------------------------------------------------------------
...................................................................................


AHORA SÍ, VAYAMOS DIRECTO CON LA CANCIÓN:


INTRO:  LA - SIm             DO#m - DOm             SIm          REm - MI7
        Uuh     lururu  rururuuu       lururu  rururuuuuuuuu ruu


RE                     REm  
Eres mi bien lo que me tiene extasiado
LA        SIm              DO#m    DOm    SIm  
Por qué negar que estoy de ti enamoraaado
                  REm
de tu dulce alma 
       MI7     LA      RIFF1         
que es toda sentimento.


RE             REm                       LA       SIm       DO#m       DOm    SIm
que me dominan e incitan al amoo-or
                REm
Eres un encanto   
MI7       LA     RIFF1
Eres mi ilusión.


RE               REm  
Dios dice que la gloria
       LA     RIFF3
está en el cielo
      FA#m         FA#7  
y que es de los mortales 
      SIm        MI7   RIFF4    RE
el consuelo al morir.


             REm                          LA
Bendito Dios porque al tenerte yo en vida
       SIm        DO#m    DOm   
no necesito ir al cielo tisú
     SIm                REm
Alma mía (amor de mi ilusión)
    MI7       LA    RIFF1 
la gloria eres tú.


RIFF5 y ACOMPAÑAMIENTO     


RE               REm  
Dios dice que la gloria
       LA     RIFF3
está en el cielo
      FA#m         FA#7  
y que es de los mortales 
      SIm        MI7   RIFF4    RE
el consuelo al morir.


             REm                          LA
Bendito Dios porque al tenerte yo en vida
       SIm        DO#m    DOm   
no necesito ir al cielo tisú
     SIm                REm
Alma mía (amor de mi ilusión)
    MI7       LA  FA#m -  SIm
la gloria eres tú
    MI7       LA    RIFF6
la gloria eres tú.


..............................................................................

*Dedico este trabajo a todas las niñas ( o chavas, como dice la mayoría)
que existen en el Mundo. A esas Damitas cuyos corazones anhelamos y
vagamente tratamaos de comprender, sin pensar si quiera que a veces ni
nosotros mismos nos comprendemos; A todas ellas, mis más sinceros deseos 
y anhelos, porque por ellas (Bueno, por una) somos capaces de cualquier
cosa que esté a nuestro alcance...Por Favor, no lo olviden...

Un saludo Fraternal a la Rondalla 'Voces' de Tapachula, Chiapas, Mis queridos
hermanos del alma, Compañeros de Serenata, Colegas de la Música, Caballeros 
de Sentimiento, y Amigos Incondicionales...

P.D  Cualquier comentario, duda, aclaración, amenaza, etc... Será bien Recibida.
P.D2 Si algún 'Voces' ve esto, pues organicémonos para ir al maruki!!! :P

            
            
Suggest correction
Creating personal tab
Creating personal tab
You can edit any tab online and save it as your Personal.

You can edit, replace or remove any tab part or add personal notes – all changes will be seen only by you.

Personal tabs can be accessed anytime from any device, even offline.
Learn more »
Give kudos to tab author, rate the tab!
1 2 3 4 5
comments
print report bad tab
guest
Wanna post a correction for this tab? Suggest correction