Oops, an error
Loading. Please wait.

Ojos Españoles tab

91 views 1 this week
no commentswrite comment
1 2 3 4 5
3 more votes to show rating
add to favorites
×
Save as Personal and add changes to this tab that will be seen only by you. Learn more ›
×
You can save this tab as Personal to edit and correct it or add notes. All changes will be seen only by you. Learn more »
launch autoscroll
font size
0
reset
how to read this tab
guitar tuner
edit
Autoscroll
slow
fast
+/-
esc
set tempo
stop
En los acordes que están entre paréntesis se debe de alargar el sonido, esta
tablatura esta en DO(C) e incluye el requinto en el mismo tono, esta completa,
me costo algo de tiempo hacerla, espero y les sirva.


REQUINTO:

   C     Cmaj7 C               G7                              C
e.-----------------------------------------------------------------------
a.-----------------------------------------------------------------------
d.-----------------------------------------------------------------------
g.-----------------------------------------------------------------------
b.-(5)-5-6-------5-5-6---------3-5-(6)---3-3-5-(6)---3-3-5-6---------3-(5)
e.--------(3)----------3-5-7-8-------------------------------3-5-7-8------


        Cmaj7         C7    F     Fm       C
g.---------------------------------------------------
b.-(5)-5-6------5-5-6--------3-1------6------0-------
e.--------(3)---------3-5-7-8---(5)----(5)-----5-(3)-


    Dm7      G7       C
g.----------------------------
b.-5-6-6-5-3-1-0-0-1-3-0-(1)--
e.----------------------------


  Dm7      G7        C   Fm7      Cmaj7
g.--------------------------------------------
b.-6-6-5-3-1-0-0-1-3-0-(1)-------6---1--------
e.---------------------------5-3---5---(5)-5--


C           Cmaj7
Son, como el sol
C                                 G7
como el azul de cielo y como el mar

son, del color
                                C
del clavel que empieza a despertar


          Camj7
Son, algo mas
                   C7       F-Am-Dm
que las estrellas al anochecer
Fm        C
ole!, y ole!
    Dm7           G7            C
los ojos de la española que yo ame


Requinto Intermedio:


C      Cmaj7
Yo fui feliz
                              G7
mirando aquellos ojos de mi amor

yo, nunca vi ni en el arcoiris
    C
su color
         Cmaj7
Son algo mas
                  C7        F-Am-Dm
que las estrellas al anochecer
Fm         C
ole!...y ole!
    Dm7            G7            C
los ojos de la española que yo ame
Dm7               G7          C
ojos de amor que nunca olvidare.


Un saludo para don Victor Olvera y la rondalla de Omitlan de Juarez Hgo.
animo don guerre con esas maracas.

            
            
Suggest correction
Creating personal tab
Creating personal tab
You can edit any tab online and save it as your Personal.

You can edit, replace or remove any tab part or add personal notes – all changes will be seen only by you.

Personal tabs can be accessed anytime from any device, even offline.
Learn more »
Give kudos to tab author, rate the tab!
1 2 3 4 5
comments
print report bad tab
guest
Wanna post a correction for this tab? Suggest correction