Oops, an error
Loading. Please wait.

Olvidar Que Fácil tab

4 views 1 this week
no commentswrite comment
1 2 3 4 5
3 more votes to show rating
add to favorites
×
Save as Personal and add changes to this tab that will be seen only by you. Learn more ›
×
You can save this tab as Personal to edit and correct it or add notes. All changes will be seen only by you. Learn more »
launch autoscroll
font size
0
reset
how to read this tab
guitar tuner
edit
Autoscroll
slow
fast
+/-
esc
set tempo
stop
Una petición a cumplir:

Para aquellos que hayan escuchado esta canción de la Rondalla de 
Saltillo, sabrán identificar los siguientes adornos. Espero que 
les sirvan de algo, ya que no sé siquiera el tono de la canción 
pero todo es cuestión que se aprendan los requintos y en cualquier 
tono podrán ejecutarlos:

LAS SIGUIENTES TABLATURAS SON TODAS LAS QUE ESTÁN EN LA CANCIÓN...
LAS HE ACOMODADO SEGÚN EL ORDEN EN KE APARECEN, POR ESO, ES MUY
DIFÍCIL QUE SE PIERDAN EN LA MELODÍA...TODO ES CUESTIÓN DE ESTAR 
MUY ATENTOS MIENTRAS LA ESCUCHAN...


Este es el INTRO de la canción:

e--11--10--8--8--10--8-------------------------------------------|
b----------------------11--9--8-----11--8--11--8----8----8---8---|
g--------------------------------10--------------10---10---10--8-|
D----------------------------------------------------------------|
A----------------------------------------------------------------|
E----------------------------------------------------------------|

Este va después de: ?Olvidar qué fácil olvidar....?

e-8--11--8--10----|
b-9--13--9--11----|
g-----------------|
D-----------------|
A-----------------|
E-----------------|

Este va después de: ? EL amor que me diste aquella vez...?

e-4--8--4--6------|
b-6--9--6--8------|
g-----------------|
D-----------------|
A-----------------|
E-----------------|

Este va después de: ? Y hasta olvidaste la sonrisa para mí...?

e---1---1---3-----|
b-2---2-----2-----|
g-----------------|
D-----------------|
A-----------------|
E-----------------|


Este es el del poema:

e--3-4-6-4-3----------------3-4?3-4-3------------3---------------|
b------------6-6-5-6----6-6-----------6-6--4-4-6-----------------|
g----------------------------------------------------------------|
D----------------------------------------------------------------|
A----------------------------------------------------------------|
E----------------------------------------------------------------|

e-3-3-4-6-4-6-4-3-3--------------3-4-3-4-3-----------3----1-1--3-|
b------------------6-6-5-6---6-6-----------6---4-4-6-----2-2---2-|
g----------------------------------------------------------------|
D----------------------------------------------------------------|
A----------------------------------------------------------------|
E----------------------------------------------------------------|


Este va después del 2do:?..Con qué facilidad...te olvidaste de mí...?

e--6-3--------------|
b------6-4-3--------|
g------------5-6----|
D-------------------|
A-------------------|
E-------------------|


*Algún requinto en especial de la Rondalla, avísenme...haré todo 
lo posible por complacerlos....Saludos a la Rondalla ?Voces? de 
Tapachula Chiapas, Salud Compachis¡¡¡*

            
            
Suggest correction
Creating personal tab
Creating personal tab
You can edit any tab online and save it as your Personal.

You can edit, replace or remove any tab part or add personal notes – all changes will be seen only by you.

Personal tabs can be accessed anytime from any device, even offline.
Learn more »
Give kudos to tab author, rate the tab!
1 2 3 4 5
comments
print report bad tab
guest
Wanna post a correction for this tab? Suggest correction