Oops, an error
Loading. Please wait.

Página Blanca tab

91 views 3 this week
no commentswrite comment
1 2 3 4 5
3 more votes to show rating
add to favorites
×
Save as Personal and add changes to this tab that will be seen only by you. Learn more ›
×
You can save this tab as Personal to edit and correct it or add notes. All changes will be seen only by you. Learn more »
launch autoscroll
font size
0
reset
how to read this tab
guitar tuner
edit
Autoscroll
slow
fast
+/-
esc
set tempo
stop
introduccion con requinto


-------3---5---3---5---3-----
-------5---5---5---5---5-----
--o--------------------------
-----------------------------
-----------------------------
-----------------------------

-----1--3--3--3---1----------
-----3--3--3--3---3----------
--0--------------------------
-----------------------------
-----------------------------
-----------------------------

----0-1-0-1-0-1-0-1----3--1--0-----------3
----1-1-1-1-1-1-1-1-------------3--1--0---
-o----------------------------------------
------------------------------------------
------------------------------------------
------------------------------------------

----3-5-3-5----1-3-1-3-----0-1-0-1-----3--1--0----------3------
----5-5-5-5----3-3-3-3-----1-1-1-1-------------3--1--0---------
-0-----------0-----------0-------------------------------------
---------------------------------------------------------------
---------------------------------------------------------------
---------------------------------------------------------------

C      Am  Dm        G           C Am Dm
te quiero     mi linda muñequita
  G               C Am  Dm  G
yo se que tu comprendes las penas
           C
que hay en mi


te adoro mi linda muñequita

yo se que tu comprendes 

MI amor sentimental

CORO

pagina blanca fue mi corazon

donde escribimos una pagina de amor

donde fue 

dulce alivio para mi dolor

que sin eso no puede vivir

MI corazon

TODO EL SISTEMA DE LA CANCION ES EL MISMO CIRCULO
TAMBIEN PARA EL REQUINTO Y EL CORO COMO 
SE ABRAN DADO CUENTA ES EL CIRCULO DE DO MAYOR
OJALA LES GUSTE, Y OTRA VEZ DEDICO ESTA CANCION A MAIRA 
LA CUAL ME ISPIRO PARA SACAR EL REQUINTO MAIRA 
TE QUIERO UN BUEN

            
            
Suggest correction
Creating personal tab
Creating personal tab
You can edit any tab online and save it as your Personal.

You can edit, replace or remove any tab part or add personal notes – all changes will be seen only by you.

Personal tabs can be accessed anytime from any device, even offline.
Learn more »
Give kudos to tab author, rate the tab!
1 2 3 4 5
comments
print report bad tab
guest
Wanna post a correction for this tab? Suggest correction