Oops, an error
Loading. Please wait.
10 views 1 this week
no commentswrite comment
1 2 3 4 5
3 more votes to show rating
add to favorites
×
Save as Personal and add changes to this tab that will be seen only by you. Learn more ›
×
You can save this tab as Personal to edit and correct it or add notes. All changes will be seen only by you. Learn more »
launch autoscroll
font size
0
reset
how to read this tab
guitar tuner
edit
Autoscroll
slow
fast
+/-
esc
set tempo
stop
ESTA ROLA SE LA DEDICO A MI CUATE EL KALIMBA UN BUEN NOVATO EN LA GUITARRA 
QUE DESPUÉS CON SON SU ESFUERZO LOGRARA SER UN EXCELENTE CANTA-AUTOR.¡SUERTE IGOR!
SALUDOS A SAN MIGUEL XALTEPEC PUE. DE SU AMIGO MAGNUM

NOTAS      EADGBE

E7M9   --> 222444
E      --> 022100
E7     --> 020100
A      --> 002220
F#m    --> 244222
Gm     --> 355333
G#m    --> 466444
C#7    --> 446464
B7     --> 021201
C#m    --> 446654

H = HAMMER
/=  --> ARRASTRADO

REQUINTO CON CAPO EN EL SEGUNDO TRASTE

----0---------------------------------------------------------------- |
------3-2-2-3H5-----2-1-----------3-2-0-0-2H3-------------------------|
-----------------------------------------------1-4-3------------------|
----------------------------------------------------------------------|
-2--------------4-------------2---------------------------------------|
----------------------------------------------------------------------|

----0---------------------------------------------------------------- |
------3-2-2-3H5-----2-1-----------3-2-0-0-2H3-------------------------|
-----------------------------------------------1-4-3------------------|
----------------------------------------------------------------------|
-2--------------4-------------2-----------------------5-4-------------|
----------------------------------------------------------------------|


  F#m
Será
      B7
Que te llevaste algo
  E7M9  F#m
de MI
      G#m  Gm
el día que te fuiste
 F#m
Será
                   B7
que estaba acostumbrado
 E7M9
A ti
                     C#7
por lo que yo estoy triste
   A                     C#7
Será porque la noche es larga
 F#m B7       E  C#7
será   porque la noche es fría


      F#m B7
por lo que estoy desvelado

-------------------|
-------------------|
------2--1---------|
---4---------------|
-------------------|
-------------------|

      E
por lo que estoy desvelado.

-----------|-------------|
-----------|-------------|
------1----|--1-----1----|
---2----4--|-----2-----4-|
-----------|-------------|
-----------|-------------|

 F#m
Será
               B7
porque te he dado todo
 E7M9 F#m
y yo
                 G#m Gm
no me quede con nada
 F#m
Será
                   B7
porque yo puse el alma
 E7M9 E E7
en ti.

-------------------|
-----0-2-2-3/5-----|
---3---------------|
-------------------|
-------------------|
-------------------|

  C#m               F#m
Y tu jamás te enamoraste de mi
  B7       E
Y tu jamás te enamoraste de mi
   A                 C#7
Será seguramente por eso
      F#m  B7
por lo que ahora estoy triste
      E
por lo que ahora estoy triste.

----0--------------------------------------------------------------- |
-------2-2-3-5-3-----2-1----------3-0-0-2-3-2------------------------|
------------------------------------------------1-4-3----------------|
---------------------------------------------------------------------|
-2---------------4------------2--------------------------------------|
---------------------------------------------------------------------|

----0--------------------------------------------------------------- |
-------2-2-3-5-3-----2-1----------3-0-0-2-3-2------------------------|
------------------------------------------------1-4-3----------------|
---------------------------------------------------------------------|
-2---------------4------------2------------------------5-4---5-2-5-4-|
---------------------------------------------------------------------|

F#m
Será
               B7
porque te he dado todo
 E7M9 F#m
y yo
                 G#m Gm
no me quede con nada
 F#m
Será
                   B7
porque yo puse el alma
 E7M9 E E7
en ti.

  C#m               F#m
Y tu jamás te enamoraste de mi
  B7       E
Y tu jamás te enamoraste de mi
   A                 C#7
Será seguramente por eso
      F#m  B7
por lo que ahora estoy triste
      E
por lo que ahora estoy triste.

            
            
Suggest correction
Creating personal tab
Creating personal tab
You can edit any tab online and save it as your Personal.

You can edit, replace or remove any tab part or add personal notes – all changes will be seen only by you.

Personal tabs can be accessed anytime from any device, even offline.
Learn more »
Give kudos to tab author, rate the tab!
1 2 3 4 5
comments
print report bad tab
guest
Wanna post a correction for this tab? Suggest correction