Oops, an error
Loading. Please wait.

Siempre Soñé tab

44 views 1 this week
no commentswrite comment
1 2 3 4 5
3 more votes to show rating
add to favorites
×
Save as Personal and add changes to this tab that will be seen only by you. Learn more ›
×
You can save this tab as Personal to edit and correct it or add notes. All changes will be seen only by you. Learn more »
launch autoscroll
font size
0
reset
how to read this tab
guitar tuner
edit
Autoscroll
slow
fast
+/-
esc
set tempo
stop
sale pues esta es la tablatura del requinto del principio de
esta cancion muy buena sale pues echenle ganas y si les sale
escuchen la cancion para que le den el ritmo que lleva la cancion.


6.------------------------------------------------------------.
5.------------------------------------------------------------.
4.------------------------------------------------------------.
3.------------------------------------------------------------.
2.-1-3-1-3-1-1-1---1-3-1-3-1-1-1--3-5-3-5-3-3-3--3-5-3-5-3-3--.
1.-1-3-1-3-1-1-1---1-3-1-3-1-1-1--3-5-3-5-3-3-3--3-5-3-5-3-3--.


6.------------------------------------------------------------.
5.------------------------------------------------------------.
4.----------3-3-----------------------------------------------.
3.-3-5-5-3----------------------------------------------------.
2.------------------------------------------------------------.
1.------------------------------------------------------------.

alguna duda o comentario escribe a este msn poncomeza2@
o conectate con el mismo msn.

            
            
Suggest correction
Creating personal tab
Creating personal tab
You can edit any tab online and save it as your Personal.

You can edit, replace or remove any tab part or add personal notes – all changes will be seen only by you.

Personal tabs can be accessed anytime from any device, even offline.
Learn more »
Give kudos to tab author, rate the tab!
1 2 3 4 5
comments
print report bad tab
guest
Wanna post a correction for this tab? Suggest correction