Oops, an error
Loading. Please wait.

Sólo Puedo Decir Te Amo chords

13 views 1 this week
no commentswrite comment
1 2 3 4 5
3 more votes to show rating
add to favorites
×
Save as Personal and add changes to this tab that will be seen only by you. Learn more ›
×
You can save this tab as Personal to edit and correct it or add notes. All changes will be seen only by you. Learn more »
launch autoscroll
font size
0
reset
transpose
0
reset
simplify chords
display chords
guitar tuner
edit
Autoscroll
slow
fast
+/-
esc
set tempo
stop
Strumming
There is no strumming pattern for this song yet. and get +5 IQ
******************************************************************************************************
* He aquí la canción, hay ciertas dudas con algunos acordes, pero, siguiendo el estilo estándar de   *
* la Rondalla de Saltillo, las notas podrían ser adecuadas (Nótese que no dije correctas) para poder *
* tocarla. Por pura estética melódica, para matizar, hay un Fa#m y un Fa#7, pero, puede cambiarse al *
* tocar TODOS como Fa#m. De cualquier forma, no se escucha tan mal.                                  *
* ATENCIÓN: Es posible que haya errores en la letra, pues no le entendí al 100%.                     *
******************************************************************************************************

Por si las dudas, aquí los acordes:
                                                                                                 _____
   A     A7      LA7      D     Dm     RE7     E    C#m    F#7    F#m     B7    Bm    /
|---0---|---0---|---0---|---0---|---0---|---0--|---0---|---4---|---2---|---2---|---2---|---2---|6  ___
|---0---|---0---|---0---|---0---|---0---|---0--|---2---|---4---|---4---|---4---|---2---|---2---|5 (___
|---2---|---2---|---2---|---0---|---0---|---0--|---2---|---6---|---2---|---4---|---4---|---4---|4
|---2---|---1---|---0---|---2---|---2---|---2--|---1---|---6---|---3---|---2---|---2---|---4---|3  ___
|---2---|---2---|---2---|---3---|---3---|---2--|---0---|---5---|---2---|---2---|---4---|---3---|2 (___
|---0---|---0---|---0---|---2---|---1---|---2--|---0---|---4---|---2---|---2---|---2---|---2---|1
                                                                                                \_____
--------------------------------------------------------------------------------------------------------
Ahora sí, vamos con los adornos melódicos:

[INTRO y ACOMPAÑAMIENTO]:

     A                E                   D             E
6|-----------------------------------------------------------------
5|-----------------------------------------------------------------
4|-----------------------------------------------------------------
3|---9----9----9---9---9----9----9-----9----7----7----7----9-------
2|---10--------10------9----9----9-----9----7----7----7----9-------
1|---9---------9-------7----7----12----7----5----5----5----7-------


   A                  E                D               E     A
---------------------------------------------------------------------------------------------------------------|6
---------------------------------------------------------------------------------------------------------------|5
---------------------------------------------------------------------------------------------------------------|4
---9-----9-------------9----9---9---9----7--7--7--7--7----9------9---------9--------------------9--------------|3
---10-------10---------9----9---9---9----7--7--7--7--7----9------10---10-------------------10-------10---------|2
---9------------9------7----7--7/9--7----5--5--5--5--5----7------9--------------9/10---9-----------------9-----|1


[INTERMEDIO y ACOMPAÑAMIENTO] (Es muy similar al INTRO)

     A                E                   D             E
6|-----------------------------------------------------------------
5|-----------------------------------------------------------------
4|-----------------------------------------------------------------
3|---9----9----9---9---9----9----9-----9----7----7----7----9-------
2|---10--------10------9----9----9-----9----7----7----7----9-------
1|---9---------9-------7----7----12----7----5----5----5----7-------

   A                  E                    D                 E          A
---------------------------------------------------------------------------------------------------------------|6
---------------------------------------------------------------------------------------------------------------|5
---------------------------------------------------------------------------------------------------------------|4
---9-----9------9------9----9---9---9---9----7------------7-----------9------------9----------------9----------|3
---10-------10---------9----9---9---9---9----7---------7-----7-----9-----9-----10---------------10-----10------|2
---9-------------------7----7---7---7---7----5------5-----------7-----------9---------9/10---9-------------9---|1

----------------------------------------------------------------------------------------------------------------

Ahora sí, vamos a la canción:

[INTRO y ACOMPAÑAMIENTO]


A                           A7 
Todos los días tus ojos me reflejan el amor
      D             E     C#m  F#7          FA#7 puede ser también un Fa#m
la verdad es que no hay por qué dudar
   Bm          E      C#m       F#m
mi corazón te ofrece un mundo de color
     D                  B7        E
y luego envuelto en el engaño quedo yo.


    A                         A7 
Mi cuerpo se siente perdido cuando tú no estas
      D        E        C#m F#7             FA#7 puede ser también un Fa#m
como ayer, como siempre y como hoy
     Bm               E        C#m            F#m
Pero hoy te siento imposible y entonces qué hago yo
    D           B7               E
te quiero sentir,    pero nunca podré.


 A       A7       LA7             D
Amiga, tu das todo...   Y no pides nunca nada
    Dm         A         B7
Con tus ojos iluminas el camino de mi vida
        E
que por tí se ha equivocado.


A                A7                  LA7
  Si yo pudiera jugar con el tiempo...
                 D                   Dm
Si yo pudiera decirte lo que siento...
              A                   B7
Si yo pudiera darte el universo...
        D     *Sim            E       A        de 'Te amo')


   A                               A7 
Contigo mis sueños de amor quisiera se volvieran realidad
         D                    E    C#m F#7    FA#7 puede ser también un Fa#m
Pues te siento tan cerca y tan linda como hoy
Bm               E           C#m    F#m
No hacen falta palabras, ni un poe e e ma
       D           B7                  E
ni la esencia sutil    de una rosa para amar


 A       A7       LA7             D
Amiga, tu das todo...   Y no pides nunca nada
    Dm         A         B7
Con tus ojos iluminas el camino de mi vida
        E
que por tí se ha equivocado.


A                A7                  LA7
  Si yo pudiera jugar con el tiempo...
                 D                   Dm
Si yo pudiera decirte lo que siento...
              A                   B7
Si yo pudiera darte el universo...
        D     *Sim            E       A          RE                   Dm                                   A7  // 

            
            
Suggest correction
Creating personal tab
Creating personal tab
You can edit any tab online and save it as your Personal.

You can edit, replace or remove any tab part or add personal notes – all changes will be seen only by you.

Personal tabs can be accessed anytime from any device, even offline.
Learn more »
Give kudos to tab author, rate the tab!
1 2 3 4 5
comments
print report bad tab
guest
Wanna post a correction for this tab? Suggest correction