Oops, an error
Loading. Please wait.

Todo Cambió tab

31 views 1 this week
no commentswrite comment
1 2 3 4 5
3 more votes to show rating
add to favorites
×
Save as Personal and add changes to this tab that will be seen only by you. Learn more ›
×
You can save this tab as Personal to edit and correct it or add notes. All changes will be seen only by you. Learn more »
launch autoscroll
font size
0
reset
how to read this tab
guitar tuner
edit
Autoscroll
slow
fast
+/-
esc
set tempo
stop
Aquí les traigo otra canción muy bien
arreglada de la rondalla de saltillo espere
y les guste, solo escuchen la versión, para que la ajusten,
bueno hay les va.

Intro: E E7 A Am E

E------------I-----------I--------------I---------------------------
B------------I-----------I------5/5-7-5-I------5-7-5---5------------
G------------I-----4-6---I-4/6----------I-4/6--------5---5-4--------
D------------I-4-6-----6-I--------------I------------------6--------
A----4-4/7-7-I-----------I--------------I---------------------------
B--7---------I-----------I--------------I---------------------------
RIFF1
E-------------------------------------------------------------------
B------5-7-8-7-5---5------------------------------------------------
G-4/6------------5---4----------------------------------------------
D--------------------6----------------------------------------------
A-------------------------------------------------------------------
E-------------------------------------------------------------------
RIFF2
E-----------5-------------------------------------------------------
B-----5-7-8---7-8---------------------------------------------------
G-4/6---------------------------------------------------------------
D-------------------------------------------------------------------
A-------------------------------------------------------------------
E-------------------------------------------------------------------
RIFF3
E---------------5-4-------------------------------------------------
B-----5-7-8-7-5-----7-5---------------------------------------------
G-4/6---------------------------------------------------------------
D-------------------------------------------------------------------
A-------------------------------------------------------------------
E-------------------------------------------------------------------


E       E7         A  Am RIFF1
Todo cambio cuando te vi
E      E7             A Am RIFF2
De blanco y negro a color me convertí
           F#m             G#m
Y fue tan fácil, quererte tanto
A               G#m
Algo que no imaginaba
 A                  B7
Fue entregarte mi amor
           A    Am RIFF3
Con una mirada

E         E7
Todo tembló
           A       Am
Dentro de mí (dentro de mí)
E                 E7
El universo escribió
                 A     A7
Que fueras para mi (para mí)

           F#m
Y fue tan fácil

(Y fue tan fácil)
          G#m
Quererte tanto

(Quererte tanto)

A                 G#m
Algo que no imaginaba
 F#m               G#m
Fue perderme en tu amor
             A
Simplemente paso
             B7
Y todo tuyo ya soy

           A                  G#m
Antes que pase más tiempo contigo amor
           E                            E7
Tengo que decir que eres el amor de mi vida
           A                    G#m
Antes que te ame mas escúchame por favor
          E               A
Déjame decir que todo te di.

      F#m
Y no hay como explicar
        G#m
Pero menos dudar
       A               B7
Simplemente asi lo sentí
        A     Am   RIFF3
Cuando te vi uuuhhh?

 E         E7          A Am          E
Me sorprendió todo de ti   (todo de ti)
                       E7            A         Am
De blanco y negro a color, me convertí (me convertí)
                F#m
Sé que no es fácil (se que no es fácil)
         G#m
Decir te amo (decir te amo)

 A                 G#m
Yo tampoco lo esperaba
 F#m             G#m
Pero así es el amor
             A
Simplemente paso
                B7
Y todo tuyo ya soy

           A                  G#m
Antes que pase más tiempo contigo amor
           E                            E7
Tengo que decir que eres el amor de mi vida
           A                    G#m
Antes que te ame mas escúchame por favor
          E               A
Déjame decir que todo te di.

      F#m
Y no hay como explicar
        G#m
Pero menos dudar
       A               B7
Simplemente asi lo sentí
        A
Cuando te vi

      Am            E
Todo cambio cuando te vi


Cualquier duda o aclaraciones a mi correo;
 y saludas a la rondalla de saltillo
y mis amigos de la rondalla corazón romántico
de Santa Cruz Acapa, Tehuacán, Puebla.

            
            
Suggest correction
Creating personal tab
Creating personal tab
You can edit any tab online and save it as your Personal.

You can edit, replace or remove any tab part or add personal notes – all changes will be seen only by you.

Personal tabs can be accessed anytime from any device, even offline.
Learn more »
Give kudos to tab author, rate the tab!
1 2 3 4 5
comments
print report bad tab
guest
Wanna post a correction for this tab? Suggest correction