Oops, an error
Loading. Please wait.

Cada Día Te Extraño Más tab

version 1
version 1

Whole song

14 views 1 this week
no commentswrite comment
1 2 3 4 5
3 more votes to show rating
add to favorites
×
Save as Personal and add changes to this tab that will be seen only by you. Learn more ›
×
You can save this tab as Personal to edit and correct it or add notes. All changes will be seen only by you. Learn more »
launch autoscroll
font size
0
reset
how to read this tab
guitar tuner
edit
Autoscroll
slow
fast
+/-
esc
set tempo
stop
Ojala les guste esta rola de lo más nuevo de esta rondalla,
y cualquier duda o sugerencia a mi correo.
¡Bueno vamos a practicarla!
Intro:
  G                                     Am                              G
E -----7--------------7--------------------------8--7--------7-----------
B----8----10---8----8-----10--8---------------10-----10----8---10-8------
G--7--------------7--------------7--7---9---9------------7-----------5--4
D------------------------------------------------------------------------
A------------------------------------------------------------------------
E------------------------------------------------------------------------

G
Porque siempre me dijiste

Yo te quiero para siempre
Am
Ahora me dices que termine
G
Nuestro amor

G
Simplemente no te entiendo

Me decías yo te quiero
Am
Pueden darte otro mundo
G         Am
De pasión y de amor
G
De amor

B7
Antes de esto
                 Em-D-C
No,  pensaste en ello
C           D
Éramos dos más
              G
Que nos amábamos

B7
El amor que di
              Em-D-C
Se está perdiendo
C         D           Em
Cada día te, extraño mas
D
Tal vez, tal vez
C                    G
Tu a mí, tu a mi ya no.
INTERMEDIO
 G                                     Am                             G
E -----7-----------------8--7----------8--7----------7-------------------
B----8----10---8------10------10---10-------10----8------10-8------------
G--7----------------9------------9-------------7----------------7--5-4---
D------------------------------------------------------------------------
A------------------------------------------------------------------------
E------------------------------------------------------------------------


G
Todo eso ya se ha ido

Ese tiempo se ha perdido
Am
Ya no tengo más tus besos
G
Ni tu amor

G
Termino la noche fría

En diciembre fue la herida
Am
Ya no tengo más tu cuerpo
G            Am            G
Ni tu calor, ni tu calor, ni tu calor

B7
Antes de esto
                   Em-D-C
No,  pensaste en ello
C           D
Éramos dos más
               G
Que nos amábamos

B7
El amor que di
              Em-D-C
Se está perdiendo
C         D           Em
Cada día te, extraño mas
D
Tal vez, tal vez
C                    G
Tu a mí, tu a mi ya no.
D       C            G
Tal vez, tu a mi ya no.

Saludos para todos mis compañeros de la rondalla
corazón romántico, de santa cruz acapa, Tehuacán,
 puebla echémosle ganas, que apenas iniciamos.
Y por supuesto a una de las mejores de nuestro
país,  la rondalla del amor de saltillo.

            
            
Suggest correction
Creating personal tab
Creating personal tab
You can edit any tab online and save it as your Personal.

You can edit, replace or remove any tab part or add personal notes – all changes will be seen only by you.

Personal tabs can be accessed anytime from any device, even offline.
Learn more »
Give kudos to tab author, rate the tab!
1 2 3 4 5
comments
print report bad tab
guest
Wanna post a correction for this tab? Suggest correction