Oops, an error
Loading. Please wait.
12 views 1 this week
no commentswrite comment
1 2 3 4 5
3 more votes to show rating
add to favorites
×
Save as Personal and add changes to this tab that will be seen only by you. Learn more ›
×
You can save this tab as Personal to edit and correct it or add notes. All changes will be seen only by you. Learn more »
launch autoscroll
font size
0
reset
how to read this tab
guitar tuner
edit
Autoscroll
slow
fast
+/-
esc
set tempo
stop
Mi segunda transcripción.. con esta gran cancion que llega
al corazon
INTRO:
  C                      E                       F
E -0-------------------------------------------------
A --3------------------------------------------------
D ---2-----------------------------------------------
G ----0----------------------------------------------
B -----1---1--------------1--0-----------------------
E ------0-----0--8--3--0--------0--3--7--8--7/3--3--5

        G                 C
E ---------------------------------
A ---------------------------------
D ---------------------------------
G ---------------------------------
B ---------------------------------
E --5--7--8--8--7--5--7--5--5/-3--3

           G7
E ----------------------
A ----------------------
D ----------------------  <----RIFF1
G ----------------------
B ----------------------
E --3--1--0--3--5--7---7

C
Escuchame mujer
       E
lo que te quiero decir
            F
que eres lo unico en mi vida
        G
yo sin ti no se que haria


C                          E
Estas en mi corazon eres mi unica ilusion
          F
y que el tiempo en que nos vemos
       G                 C-G7 RIFF 1
yo quisiera fuera eterno


      C                    E
yo no te pido tu amor solo pido comprension
          F
pues bien se que no soy nada
       G
tu mereces lo mejor

C                                   E
Aun asi me siento bien pues me has dado tu amistad
        F
hoy te pido me perdones
        G                 C-G7 RIFF1
por favor no me abandones no


             C
por que eres tu amiga mia
         E
lo que siempre yo espere
     F
eres toda mi alegria
      G
eres mi razon de ser


            C
porque esto que por ti yo siento
        E
nunca antes lo senti
           F
porque te quiero y no te miento
        G
si te digo siempre estoy pensando en ti

C-E-C-E-F-C C-G7
            RIFF1

            C
por que eres tu amiga mia
         E
lo que siempre yo espere
     F
eres toda mi alegria
      G
eres mi razon de ser


            C
porque esto que por ti yo siento
        E
nunca antes lo senti
           F
porque te quiero y no te miento
        G
si te digo siempre estoy pensando en ti

C-E-C-E-F-C

            
            
Suggest correction
Creating personal tab
Creating personal tab
You can edit any tab online and save it as your Personal.

You can edit, replace or remove any tab part or add personal notes – all changes will be seen only by you.

Personal tabs can be accessed anytime from any device, even offline.
Learn more »
Give kudos to tab author, rate the tab!
1 2 3 4 5
comments
print report bad tab
guest
Wanna post a correction for this tab? Suggest correction