Oops, an error
Loading. Please wait.

La Canción Del Ayer tab

20 views 1 this week
no commentswrite comment
1 2 3 4 5
3 more votes to show rating
add to favorites
×
Save as Personal and add changes to this tab that will be seen only by you. Learn more ›
×
You can save this tab as Personal to edit and correct it or add notes. All changes will be seen only by you. Learn more »
launch autoscroll
font size
0
reset
how to read this tab
guitar tuner
edit
Autoscroll
slow
fast
+/-
esc
set tempo
stop
Bueno esta cancion lleva 2 tonos de guitarras requintiando,
yo pondré el de la segunda guitarra que es en tono agudo:

                          C                                      Am
e--10-8-10-8-10-8-10-8-7-8-10--
b--------------------------------------------
g-------------------------------------------
D-------------------------------------------        > Se repite 2 veces
A-------------------------------------------
E-----------------------------------------

                              F
e--10-10-10-10-10-10-12-10-8-7-12-10-8-7-|
b----------------------------------------------------------|
g----------------------------------------------------------|
D----------------------------------------------------------|
A----------------------------------------------------------|
E----------------------------------------------------------|

  G
e-8-10-8-7-8-10-8-7-8-|
b-----------------------------|
g-----------------------------|  <--Esto va rápido
D----------------------------|
A----------------------------|
E----------------------------|

                          C                                      Am
e--10-8-10-8-10-8-10-8-7-8-10--
b--------------------------------------------
g-------------------------------------------
D-------------------------------------------        > Se repite 2 veces
A-------------------------------------------
E-----------------------------------------

                              F
e--10-10-10-10-10-10-12-10-8-7-12-10-8-7-|
b----------------------------------------------------------|
g----------------------------------------------------------|
D----------------------------------------------------------|
A----------------------------------------------------------|
E----------------------------------------------------------|

  G
e-8--8-8-8-7-5-8-7-----|
b-----------------------------|
g-----------------------------|
D----------------------------|
A----------------------------|
E----------------------------|

 C                     Am
Hoy en mi mente gris,
           F                   G
vino a revivir el amor de ayer,
 C                 Am                     F
en está soledad de mi humilde hogar,
                 G
que me vio nacer.

CORO:

                       C
No me pidas que esta historia,
                      Am
se borre de mi memoria,
                       F
sinco versos en la gloria,
                         G
se escribió nuestro querer,
                      C
hoy el río ya no siente amar,
                         Am
se confunde con mis lágrimas,
                          F
y los lirlos que me ven llorar,
                  G
se confunde con mi voz.

Hablada.....

                          C                                      Am
e--10-8-10-8-10-8-10-8-7-8-10--
b--------------------------------------------
g-------------------------------------------
D-------------------------------------------        > Se repite 2 veces
A-------------------------------------------
E-----------------------------------------

                              F
e--10-10-10-10-10-10-12-10-8-7-12-10-8-7-|
b----------------------------------------------------------|
g----------------------------------------------------------|
D----------------------------------------------------------|
A----------------------------------------------------------|
E----------------------------------------------------------|

  G
e-8-10-8-7-8-10-8-7-8-|
b-----------------------------|
g-----------------------------|  <--Esto va rápido
D----------------------------|
A----------------------------|
E----------------------------|

                          C                                      Am
e--10-8-10-8-10-8-10-8-7-8-10--
b--------------------------------------------
g-------------------------------------------
D-------------------------------------------        > Se repite 2 veces
A-------------------------------------------
E-----------------------------------------

                              F
e--10-10-10-10-10-10-12-10-8-7-12-10-8-7-|
b----------------------------------------------------------|
g----------------------------------------------------------|
D----------------------------------------------------------|
A----------------------------------------------------------|
E----------------------------------------------------------|

  G
e-8--8-8-8-7-5-8-7-----|
b-----------------------------|
g-----------------------------|
D----------------------------|
A----------------------------|
E----------------------------|

CORO:

                       C
No me pidas que esta historia,
                      Am
se borre de mi memoria,
                       F
sinco versos en la gloria,
                         G
se escribió nuestro querer,
                      C
hoy el río ya no siente amar,
                         Am
se confunde con mis lágrimas,
                          F
y los lirlos que me ven llorar,
                  G
se confunde con mi voz.
           C - Am          C              Am                     F - G
Que se llaaamaa aamor...amoor...amor...amor...amooooor

                          C                                      Am
e--10-8-10-8-10-8-10-8-7-8-10--
b--------------------------------------------
g-------------------------------------------
D-------------------------------------------        > Se repite 2 veces
A-------------------------------------------
E-----------------------------------------

                              F
e--10-10-10-10-10-10-12-10-8-7-12-10-8-7-|
b----------------------------------------------------------|
g----------------------------------------------------------|
D----------------------------------------------------------|
A----------------------------------------------------------|
E----------------------------------------------------------|

  G
e-8-10-8-7-8-10-8-7-8-|
b-----------------------------|
g-----------------------------|  <--Esto va rápido
D----------------------------|
A----------------------------|
E----------------------------|

                          C                                      Am
e--10-8-10-8-10-8-10-8-7-8-10--
b--------------------------------------------
g-------------------------------------------
D-------------------------------------------        > Se repite 2 veces
A-------------------------------------------
E-----------------------------------------

                              F
e--10-10-10-10-10-10-12-10-8-7-12-10-8-7-|
b----------------------------------------------------------|
g----------------------------------------------------------|
D----------------------------------------------------------|
A----------------------------------------------------------|
E----------------------------------------------------------|

  G
e-8--8-8-8-7-5-8-7-----|
b-----------------------------|
g-----------------------------|
D----------------------------|
A----------------------------|
E----------------------------|

Saludos a Castaños Coahuila
Suggest correction
Creating personal tab
Creating personal tab
You can edit any tab online and save it as your Personal.

You can edit, replace or remove any tab part or add personal notes – all changes will be seen only by you.

Personal tabs can be accessed anytime from any device, even offline.
Learn more »
Give kudos to tab author, rate the tab!
1 2 3 4 5
comments
print report bad tab
guest
Wanna post a correction for this tab? Suggest correction