Oops, an error
Loading. Please wait.

Yo Quería Ser Mayor tab

107 views 1 this week
no commentswrite comment
1 2 3 4 5
3 more votes to show rating
add to favorites
×
Save as Personal and add changes to this tab that will be seen only by you. Learn more ›
×
You can save this tab as Personal to edit and correct it or add notes. All changes will be seen only by you. Learn more »
launch autoscroll
font size
0
reset
how to read this tab
guitar tuner
edit
Autoscroll
slow
fast
+/-
esc
set tempo
stop
INTRODUCCION
E||------------0---------|--0-------------------|----------------------|
B||--1----3----1----1----|-------3----1----0----|-------0--------------|
G||--2----0--------------|----------------------|--0---------0---------|
D||----------------------|----------------------|-----------------0----|
A||--3----2----3----0----|-----------------2----|----------------------|
E||----------------------|-----------------3----|----------------------|


-----------------0-----|----------------------|----------------------|
--3--------------1-----|-------0----1---------|--0--------------0----|
-------2----2----2-----|--2--------------2----|-------2----0---------|
-----------------3-----|----------------------|----------------------|
-------0---------3~----|------------0---------|-----------------0----|
-----------------------|----------------------|----------------------|


------------0----------|----------------------|---------------------|
------------1----------|----------------------|---------------------|
--0----2----2----------|-----------------0----|---------------------|
------------3----------|------------2---------|--2------------------|
------------3-----3----|-------3--------------|--0------------------|
-----------------------|--3-------------------|---------------------|


Am             C             G
  Era la primavera del verso pálido
       F                       C     G**
de mis años de promesas y desengaños
Am               C               G
   Cuando comprendí que habia llegado
     F            E            Am
el momento de alejarme de mi pasado.

Am                 C         G
  Un domingo de abril tome coraje
  F                           C     G**
y me marché dejando mi mejor traje
Am                C            G
   a verme con la vida cara a cara,

  F           E            Am
a conocer el mundo de madrugada.

      C
Yo quería ser mayor,
   G
quería ser mayor,
   F                       C
quería ser un hombre habilitado.
       C
Yo quería ser mayor,
   G
quería ser mayor,
  F            E           Am
y ya no ser un niño malhumorado.

(Se repiten las notas de los versos y estribillo)

La gente me ha enseñado a ser discreto
sereno, complaciente, equilibrado.
A cambio de mis sueños me han dejado
un sitio para el vicio y el pecado.

Yo quería ser mayor,
quería ser mayor,
quería ser un hombre habilitado.
Yo quería ser mayor,
quería ser mayor,
y ya no ser un hombre malhumorado.

Ya no quiero ser mayor,
no quiero ser mayor,
no quiero ser un hombre domesticado.
Ya no quiero ser mayor,
no quiero ser mayor,
prefiero ser un niño enamorado.

REFERENCIAS:

G**=
|--3--------3--------0--|
|-----3--------3--------|
|--------0--------0-----|
|-----------------------|
|--2--------------------|
|--3--------------------|

PD: La introduccion es lo que le agregué, así también como una
nota más (la que se ve en referencia) así suena mejor.

Email: 

Saludos
Suggest correction
Creating personal tab
Creating personal tab
You can edit any tab online and save it as your Personal.

You can edit, replace or remove any tab part or add personal notes – all changes will be seen only by you.

Personal tabs can be accessed anytime from any device, even offline.
Learn more »
Give kudos to tab author, rate the tab!
1 2 3 4 5
comments
print report bad tab
guest
Wanna post a correction for this tab? Suggest correction