Oops, an error
Loading. Please wait.

Si Tu No Estás tab

version 1
version 1

Whole song

by Rosana
76 views 1 this week
no commentswrite comment
1 2 3 4 5
3 more votes to show rating
add to favorites
×
Save as Personal and add changes to this tab that will be seen only by you. Learn more ›
×
You can save this tab as Personal to edit and correct it or add notes. All changes will be seen only by you. Learn more »
launch autoscroll
font size
0
reset
how to read this tab
guitar tuner
edit
Autoscroll
slow
fast
+/-
esc
set tempo
stop
PARA TI >

INTRO:

    D#9        Gm            G#                    A#5
6|-------------3------------4-----------------------------------------------
5|----------------------------6-----------------1---------------------------
4|---1--------------------------6-----------------3--------3----------------
3|-----3-------3--3---------------5-------5---------3---3-------------------
2|-------4-----3----3---------------4---4-------------1------1h3------------
1|---------1----------3h4-------------4--------------------------1----------

   No quiero estar sin ti..........si tu no estas aqui me sobra el aire...
6|-------------3----------4------------------------------------------------------------------
5|--------------------------6---------------1----------------------------------------1h3-----
4|---1------------------------6---------------3-------3-----1--------------------------------
3|-----3-------3--3-------------5-------5-------3---3---------3---------3--------3-----------
2|-------4-----3----3-------------4---4-----------3------3------4-----4--------4-------------
1|---------1----------3-------------4--------------------1--------1h3------4-3---------------

   No quiero estar asi............si tu no estas la gente se hace nadie...
6|-------------3----------4-------------------------------------------------------------------4--
5|-------------------------------------------1----------------------------------------------1----
4|---1----------------------6------------------3-----------3--------1----------------------------
3|-----3-------3--3-------------5----5---5-------3--3--------3---3----3---------3-------3--------
2|-------4-----3----3---------4--------4---------1h3----3------3--------4-----4-------4----------
1|---------1----------3-----------4-------------------1-------------------1h3-----4-3------------

   si tu no estas aqui no se.......que diablos hago amandote...
6|---3-------------------4-----------------------------------------------------------------4-----
5|-------------------------6---------------1--------------------------------------------1--------
4|---------------------------6---------------------------------1---------------------------------
3|-----3---3----3---3----------5-------5-----3---3----3---3------3---------3--------3------------
2|-------3---3----3-------------4---4----------3----3---3----------4-----4--------4--------------
1|-----------3--------------------4-----------------1----------------1h3------4-3----------------

  si tu no estas aqui sabras......................
|---3-------------------4----------------------1-----------
5|-------------------------6-------------------1-----------
4|---------------------------6-----------------3-----------
3|-----3---3----3---3----------5-------5-------3-----------
2|-------3---3----3-------------4---4----------3-----------
1|-----------3--------------------4------------1-----------


que dios no va a entender...
           D#
por que te vas.
    Gm         G#
No quiero estar sin ti
    A#                            D# D#9 D#
si tú no estas aquí me falta el sueño
   Gm           G#
No quiero andar así
    A#                           D#  D#9
latiendo un corazón de amor sin dueño
 Gm                 G#
Si tú no estas aquí no se
A#                     D# D#9
que diablos hago amandote
 Gm                   G#
si tu no estas aqui sabras
 A#                                 D#  D#9
que Dios no va a entender por que te vas


D#               D#9  Gm
Derramare mis sueños si algún día no te tengo
 G#                A#          D#  D#9  D#
lo mas grande se hará lo mas pequeño
               Gm           G#
paseare en un cielo sin estrellas esta vez
 A#
tratando de enterder quien hizo
 Gm           Cm
un infierno el paraíso
G#           A#          D#
no te vayas nunca porque no
     Gm           G#
no puedo estar sin ti
   A#                         D#    D#9
si tú no estas aquí me quema el aire
 Gm                 (SILENCIO)      G#
Si tú no estas aquí..............no se
A#                     D# D#9
que diablos hago amandote
 Gm                   G#
si tu no estas aqui sabras
 A#                                 D#
que Dios no va a entender por que te vas

 Gm                 G#
Si tú no estas aquí no se
A#                     D# D#9
que diablos hago amandote
 Gm
si tu no estas aqui......

  sabras........................que Dios no va a entender...
6|--------4-------------------1--------------------------------
5|----------6-----------------1--------------------------------
4|------------6---------------3--------------------------------
3|--------------5-------5-----3--------------------------------
2|----------------4---4-------3--------------------------------
1|------------------4---------1--------------------------------

  por que te vas.....................
6|----------------------------------------------
5|--------------------5--------3----------------
4|-----------1----------------------------------
3|----------------------------------------------
2|-------------4--------4---------4-------------
1|---------------1-1------1-1-------1-1---------

 si tu no estas aqui.


BUENO, AHI ESTA ESTA ROLA, LA ANTERIOR KE MANDE NO ESTABA EN EL TONO ORIGINAL, Y CREANME KE NO ME
HABIA DADO CUENTA, HASTA HACE COMO TRES DIAS, ASI KE LES PIDO UNA DISCULPA,AKI LES MANDO LA VERSION
ORIGINAL, HECHENLE GANAS, ESTA CANCION ESTA MEDIO TONO ARRIBA, LE SUGIERO KE USEN UN CAPO, ASI NO
TENDRAN PROBLEMAS..
LA CANCION SE LA QUIERO DEDICAR A SARAHI HDZ. ALV., KE NO SE EN DONDE SE ENCUANTRE, PERO DONDE ESTE
OJALA Y ESTE BIEN, DEBE ESTAR EN SALINA CRUZ, OAX., Y SI NO, PUES SI ALGUIEN LA CONOCE DIGASELO, AUNQUE
ELLA YA LO SABE..>
SALUDOS A PÒZA RICA, VER..A LA FCULTAD DE INGENIERIA CIVIL, AL 501-C, Y COMENTARIOS, SUGERENCIAS,
CHISTES, ANECDOTAS, CITAS, MENTADAS, PUES A MI CORREO...
BYE, SE CUIDAN.

            
            
Suggest correction
Creating personal tab
Creating personal tab
You can edit any tab online and save it as your Personal.

You can edit, replace or remove any tab part or add personal notes – all changes will be seen only by you.

Personal tabs can be accessed anytime from any device, even offline.
Learn more »
Give kudos to tab author, rate the tab!
1 2 3 4 5
comments
print report bad tab
guest
Wanna post a correction for this tab? Suggest correction