Oops, an error
Loading. Please wait.

Si Tu No Estás tab

version 2
version 2

Whole song

by Rosana
92 views 1 this week
no commentswrite comment
1 2 3 4 5
3 more votes to show rating
add to favorites
×
Save as Personal and add changes to this tab that will be seen only by you. Learn more ›
×
You can save this tab as Personal to edit and correct it or add notes. All changes will be seen only by you. Learn more »
launch autoscroll
font size
0
reset
how to read this tab
guitar tuner
edit
Autoscroll
slow
fast
+/-
esc
set tempo
stop
Soy nuevo en esto, por eso no sé si la tablatura es del todo
correcta aunque en su defecto se acerca bastante. Espero que
les guste y que disfruten tocando que es lo que cuenta.
Saludos.


Si tu no estás

intro:    
   
-------0-------2/3-----------3-----------------0--------
-----3---2---------------3-----3-------------2---2------
---2-------2-----------4---4-----4-----4---4-------4-2--
-0-----------4-------5---------------2---2--------------
-------0---------------------------0--------------------
---------2---------3------------------------------------
  
No quiero estar sin ti...        ...Si tu no estas aqui me sobra el aire...
-------0---------------------3-------------0-------------0/2-----3/2---------
-----3---2---------------3-----3---------2---2---------3-----3-------3-------
---2-------2-----------4---4-----4-----4-------4-----2---------2-------2-----
-0-----------4-------5---------------2-----------2-0---------------------4/2-
-------0---------------------------0-----------------------------------------
---------2-----2/3-3---------------------------------------------------------

No quiero estar así...         ...Si tu no estás, la gente se hace nadie...
-------0---------------------3-------------0-------------0/2-----3/2---------
-----3---2---------------3-----3---------2---2---------3-----3-------3-------
---2-------2-----------4---4-----4-----4-------4-----2---------2-------2-----
-0-----------4-------5---------------2-----------2-0---------------------4/2-
-------0---------------------------0-----------------------------------------
---------2-----2/3-3---------------------------------------------------------

...Si tu no estas aqui no se...         ...qué diablos hago amándote...
-------0---------------------3-------------0-------------0/2-----3/2---------
-----3---2---------------3-----3---------2---2---------3-----3-------3-------
---2-------2-----------4---4-----4-----4-------4-----2---------2-------2-----
-0-----------4-------5---------------2-----------2-0---------------------4/2-
-------0---------------------------0-----------------------------------------
---------2-----2/3-3---------------------------------------------------------
  
...Si tu no estás aquí sabrás... que Diós no va a entender... porqué te vas...  
-------0---------------------3------0---
-----3---2---------------3-----3----2---
---2-------2-----------4---4-----4--2---
-0-----------4-------5--------------2---
-------0----------------------------0---
---------2-----2/3-3----------------0---

Re^tap  FA#m^tap           Sol^tap 
No       quiero estar sin ti
    La^tap                 Re^tap  
Si tu no estas aqui me falta el sueño
Re^tap   FA#m^tap       Sol^tap
No       quiero andar asi
La^tap                   Re^tap
Latiendo un corazon de amor sin dueño
                  ---2/3/2-----2/3/2------
                  ---------3---------3----
                  -----------2---------2--

      FA#m^tap             Sol^tap
   Si tu no estas aqui no se
      La^tap           Re^tap
   Que diablos hago amandote
   FA#m^tap           Sol^tap
   Si tu no estas aqui sabras
   La^tap                          Re^tap
   Que Dios no va a entender por que te vas
                        ----2-3-2--------
                        ----------3------
                        --2---------2----

Re^tap                        FA#m^tap
Derramare mis sueños si algun dia no te tengo
Sol^tap              La^tap     Re^tap 
Lo mas grande se hara lo mas pequeño
                        ---2/3-5-3/2------
                        -------------3----
                        ---------------2

            
            
Suggest correction
Creating personal tab
Creating personal tab
You can edit any tab online and save it as your Personal.

You can edit, replace or remove any tab part or add personal notes – all changes will be seen only by you.

Personal tabs can be accessed anytime from any device, even offline.
Learn more »
Give kudos to tab author, rate the tab!
1 2 3 4 5
comments
print report bad tab
guest
Wanna post a correction for this tab? Suggest correction