Oops, an error
Loading. Please wait.

Díselo Tú chords

by Rosendo
37 views 1 this week
1 commentread comment
1 2 3 4 5
3 more votes to show rating
add to favorites
×
Save as Personal and add changes to this tab that will be seen only by you. Learn more ›
×
You can save this tab as Personal to edit and correct it or add notes. All changes will be seen only by you. Learn more »
launch autoscroll
font size
0
reset
transpose
0
reset
display chords
guitar tuner
edit
Autoscroll
slow
fast
+/-
esc
set tempo
stop
Strumming
There is no strumming pattern for this song yet. and get +5 IQ
¡Hola, ké tal kolegas!
Soy anarky de nuevo. ¡¡A ver si sakáis más kanciones del Rosen,
ke hay muy pokas pa todos los años ke lleva en la carretera!!

AKORDES (toda la kanción kon un ritmillo reagge)

     G       D       C
e|---3---|---5---|---3---|
B|---3---|---7---|---5---|
G|---4---|---7---|---5---|
D|---5---|---7---|---5---|
A|---5---|---5---|---3---|
E|---5---|---5---|---3---|

INTRO (me salto algunos trukos)

e|---10---9---7----------------7---7---7---8---7---|
B|----------------10---8---7---8---8---8---8---8---|
G|-----------------------------7---7---7---7---7---|
D|-------------------------------------------------|
A|-------------------------------------------------|
E|-------------------------------------------------|

e|---9---9---9---10---9slide10---|---10---9----7---|
B|--10---10--10--10---10---------|-----------------|
G|---9---9---9---9----9----------|-----------------|
D|-------------------------------|-----------------|
A|-------------------------------|-----------------|
E|-------------------------------|-----------------|

e|----------------7---7---7---8---7---9---9---9----|
B|---10---8---7---8---8---8---8---8--10--10---10---|
G|----------------7---7---7---7---7---9---9---9----|
D|-------------------------------------------------|
A|-------------------------------------------------|
E|-------------------------------------------------|

e|---10---9---9---7---7---7---7---2---2---2---2----|
B|---10--10---10--8---8---8---8---3---3---3---3----|
G|---9----9---9---7---7---7---7---2---2---2---2----|
D|-------------------------------------------------|
A|-------------------------------------------------|
E|-------------------------------------------------|

Después, a la vez ke hace un punteo el bajo, la guitarra
hace unos akordes casi reagge así :
  
   G - D - C - G - D - C - G - D - C - D - D  (x2 veces)

Y con los mismos akordos y el mismo ritmo sigue toda la kanción :

Kómo me gusta el pan ¿ap? tumaka.
Kómo me va el Orujo de Lalí.
Soy monitor de patinaje en Jákar : 
¡kómo destaka, eso sí ke destaka!
Suelo desparramar en Mojácar. 
Siempre me ligo un puente en San Fermín.
Me voy pa Triana en Semana Santa : 
¡ké bien se aguanta, eso sí ke se aguanta!

INTRO

Vámonos ke este fulano es un vacilón,
ke todo lo ke kiere es tirarse el moko
y ya sabes tú ke yo de aguante aguanto muy poko, 
¡y ké le monto una eskandalera entera 
en kuanto ke me kaliente!
¡¡Ké tiene narices la gente!!

Otra vez los akordes y el ESTRIBILLO : (BIS)

¡Díselo tú, kompadre!
¡Díselo tú, ke se lokalize!
¡Díselo tú!

Y termina en un G suave.


Dudas, sugerencias, korrekciones y demás historias a :
   anarky@
   che18@

¡HASTA OTRA!

            
            
Suggest correction
Creating personal tab
Creating personal tab
You can edit any tab online and save it as your Personal.

You can edit, replace or remove any tab part or add personal notes – all changes will be seen only by you.

Personal tabs can be accessed anytime from any device, even offline.
Learn more »
Give kudos to tab author, rate the tab!
1 2 3 4 5
comments
print report bad tab
1 comment total.
0 reply
Pathetic guitar 10 Aug 22, 2016 01:34 PM

Buena tablatura...pero escribe bien

guest
Wanna post a correction for this tab? Suggest correction