Oops, an error
Loading. Please wait.

Flojos De Pantalón tab

version 1
version 1

Whole song

by Rosendo
2,120 views 9 this week
29 commentsread comments
1 2 3 4 5
2 more votes to show rating
add to favorites
×
Save as Personal and add changes to this tab that will be seen only by you. Learn more ›
×
You can save this tab as Personal to edit and correct it or add notes. All changes will be seen only by you. Learn more »
launch autoscroll
font size
0
reset
how to read this tab
guitar tuner
edit
Autoscroll
slow
fast
+/-
esc
set tempo
stop
TRANSCRITA POR: 'hiperock@ y 'mynameislucaskywalkersomakemebad@

x^x^x = link
x^(x) = bending
x~(x) = slide

//INTRO\\(2 veces)
  
1|-----------------------------------------------------------------------------------|
2|-----------------------------------------------------------------------------------|
3|-----------------------------------------------------------------------------------|
4|-----------------------------------------------------------------------------------|
5|-7---7-7-7-6-7-6-4-2~7---7-7-7-6-7-6-4-2---6---6---4---7~(2)---2-2-2---------------|
6|-0---0-0-0-0-0-0-0-0-0---0-0-0-0-0-0-0-0---7-9-----5-7----0----0-0-0---3^2^0-------|

|-----------------------------------------------------------------------------------|
|-----------------------------------------------------------------------------------|
|-----------------------------------------------------------------------------------|
|-----------------------------------------------------------------------------------|
|-6---6---4---7~(2)---2-2-2---------------------------------------------------------|
|-7-9-----5-7----0----0-0-0---3^2^0-------------------------------------------------|

E5           B5          C#5   A5           C#5
Surje la escena en un salón,  niñas en promoción,
A5               C#5        B5
momias poniendo precio, ambigüedad.
      E5      B5            C#5    
Alguien va presumiendo discreción,
A5            C#5    A5          C#5     B5
Flojos de pantalón, líderes del diseño novedad.


//ESTRIBILLO\\

       A5        B5            C#5
Son la musa que inspira la ambición
A5           C#5    E5 D#5 E5 B5
Sueño de libertad, 
A5         B5       C#5  
noches al pie del cañón, 
A5               C#5    E5 D#5 E5 B5             
fuerza de voluntad.


//INTRO\\  (2 Veces)

E5       B5         C#5   A5           C#5
Es una tribu de ficción, síndrome de bufón
A5         C#5           B5
héroes de novelista berbiquí.
       E5      B5         C#5   A5            C#5
Provocando desprecio y reacción, lucen su condición
A5           C#5          B5
dueños del desparpajo, frenesí.


//ESTRIBILLO\\


E5*                                          G#5
                                                       
E5*                                G#5           E5*                         G#5  
Y tu mientras... asumiendo....  rebuscando....  renegando de tu tiempo


//SOLO\\ Acordes del estribillo.

x^x^x = link
x^(x) = bending
x~(x) = slide

            no he prestado mucha atencion al tiempo por no calentarme la
            cabeza... escucha la cancion e intenta tocar estas notas lo 
            mas rapido k puedas siguiendo el ritmo k marca Rosendo :P


1|--------------------------------------------------------------------------------------------|
2|----5---4-5-7-----------------------------------7^(9)---7----7^(9)---7----7-----------------|
3|--------------4-4------------------------------------------9------------9-------------------|
4|------------------7-6-------6-6^7^6---6-6^7-6-----------------------------------------------|
5|------------------------7-9---------9-------------------------------------------------------|
6|--------------------------------------------------------------------------------------------|

1|-----------------------------12-11-12-11-12-11-9---11-12-14-14^(16)-14-12-14^(16)-14-12-14-|
2|-------7-------------7-7^9------------------------------------------------------------------|
3|---6-8---9-9-8-9-8-9------------------------------------------------------------------------|
4|-9------------------------------------------------------------------------------------------|
5|--------------------------------------------------------------------------------------------|
6|--------------------------------------------------------------------------------------------|

1|-12-11-12-11-9-12-11-11^12^11^9-------------------------------------------------------------|
2|--------------------------------12-9-----7-9-9^10^9^7-9^10^9^7-9^10^9^7-9-------------------|
3|---------------------------------------9----------------------------------------------------|
4|--------------------------------------------------------------------------------------------|
5|--------------------------------------------------------------------------------------------|
6|--------------------------------------------------------------------------------------------|

1|--------------------------------------------------------------------------------------------|
2|-----7-9-9^10^9^7-9^10^9^7------------------------------------------------------------------|
3|---9-----------------------9-8~(0)----------------------------------------------------------|
4|--------------------------------------------------------------------------------------------|
5|--------------------------------------------------------------------------------------------|
6|--------------------------------------------------------------------------------------------|

            y aki es cuando al abuelo se le va la perola con las escalas

1|-------------------|-----------------|-------------------|------------------|-----------------|
2|-----------------5-|-4-7-5-4---------|-2-----------------|------------------|-----------------|
3|-----2-1-4-2-6-4---|---------6-4-2-4-|---4p2-4-2-1-2-1---|-1----------------|-------------1---|
4|-2-4---------------|-----------------|-----------------4-|---2-4-1-2---1----|---1-2-4-2-4---4-|
5|-------------------|-----------------|-------------------|-----------4---2--|-4---------------|
6|-------------------|-----------------|-------------------|------------------|-----------------|

1|------------------|-------------------|-------------------|--------------------|--------------12p11-|
2|------------------|-------------------|-------------------|-----------10---9-9-|(9)~~~~~~~~-9-------|
3|-1h2-1-2-4--2--1--|----1--------1--2--|/4---2-/6---4-/9---|-8-/11---9----------|--------------------|
4|------------------|-4-----2--4--------|-------------------|--------------------|--------------------|
5|------------------|-------------------|-------------------|--------------------|--------------------|
6|------------------|-------------------|-------------------|--------------------|--------------------|

            He transcrito el 90% del solo, no me tokes las pelotas, te 
            aprendes la escala e improvisas, k no me apetece seguir 
            poniendo numeritos...


nota: Todos los E5 de la cancion son agudos excepto los k llevan asterisco (*)
Suggest correction
Creating personal tab
Creating personal tab
You can edit any tab online and save it as your Personal.

You can edit, replace or remove any tab part or add personal notes – all changes will be seen only by you.

Personal tabs can be accessed anytime from any device, even offline.
Learn more »
Give kudos to tab author, rate the tab!
1 2 3 4 5
comments
print report bad tab
29 comments total. Showing first comments.
0 reply
jupape23 10 Apr 04, 2017 08:11 PM

Con un poco de tiempo la editare y pondré como la hace el viejo exactamente. Cuando se vuelve loco con las escalas lo hace en la tercera cuerda 2-4 y 1-2 de la segunda... y a partir de ahí....es oido. Cae de cajón. Un saludo, en breves la mejoro

0 reply
jupape23 10 Apr 14, 2017 01:48 PM

Con un poco de tiempo la editare y pondré como la hace el viejo exactamente. Cuando se vuelve loco con las escalas lo hace en la tercera cuerda 2-4 y 1-2 de la segunda... y a partir de ahí....es oido. Cae de cajón. Un saludo, en breves la mejoro

0 reply
jupape23 10 Apr 14, 2017 01:48 PM

Con un poco de tiempo la editare y pondré como la hace el viejo exactamente. Cuando se vuelve loco con las escalas lo hace en la tercera cuerda 2-4 y 1-2 de la segunda... y a partir de ahí....es oido. Cae de cajón. Un saludo, en breves la mejoro

guest
Wanna post a correction for this tab? Suggest correction