Oops, an error
Loading. Please wait.

Si Tu No Estas Aquí tab

version 1
version 1

Whole song

by Roxana
58 views 1 this week
no commentswrite comment
1 2 3 4 5
3 more votes to show rating
add to favorites
×
Save as Personal and add changes to this tab that will be seen only by you. Learn more ›
×
You can save this tab as Personal to edit and correct it or add notes. All changes will be seen only by you. Learn more »
launch autoscroll
font size
0
reset
how to read this tab
guitar tuner
edit
Autoscroll
slow
fast
+/-
esc
set tempo
stop
hola, esta esta es mi primera transcripcion, creo que esta bien
solo escuchenla para que vayan sacando los tiempos, ok?, 
esta cancion la saque por que me recuerda mucho a una chava que fue 
mi novia y que  apesar de este tiempo qeu no esta aki, no lahe
dejado de amar, Sarahi Hernandez Alvarez...TE AMO..si alguien
la conoce alla en Salina Cruz, Oaxaca, pues diganle que esta transcripcion
la hice por ella, y que se la dedico....

Intro:

       D     F#m       G               A5               A
6|-----------2---------3--------------------------------0------------------------------|
5|--------------------------------------0---------------0------------------------------|
4|--0-------------------------------------2---------2---2------------------------------|
3|----2---------2---------0---0--0---0------2-----2-----2------------------------------|
2|------3---------2---------3------3----------2-0-------2------------------------------|
1|--------3---------2-----------3-----------------------0------------------------------|

VERSO:

6|------------2---------3--------------------------------------------------------------|
5|-----------------------------------------0-----------------------------------0h2-----|
4|--0---------------------------------------------- -2-------0-------------------------|
3|----2----------2---------0---0---0---0------2--- 2------2----2------2------ 2--------|
2|------3----------2---------3-------3----------2------2-------- 3---3------ 3---------|
1|--------3----------2-----------3----------------0-----------------3-----3-2----------|


6|------------2---------3--------------------------------------------------------------|
5|-----------------------------------------0-----------------------------------0h2-----|
4|--0----------------------------------------2-------2-------0-------------------------|
3|----2----------2---------0---0---0---0-------2---2------2----2------2------2---------|
2|------3----------2---------3-------3-----------2------2--------3---3------3----------|
1|--------3----------2-----------3---------------------------------3-----3-2-----------|

6|---2-----------------3---------------------------------------------------------------|
5|--------------------------------------0-----------------------------------------0h2--|
4|----------------------------------------------------------0--------------------------|
3|------2-------2---------0--0---0---0------2------2----------2-------2--------2-------|
2|--------2---2-----2-------3------3----------2---2----2--------3---3--------3---------|
1|----------2-----2------------3----------------0----0------------3------3-2-----------|


6|---2-----------------3---------------------------------------------------------------|
5|----------------------------------------0-----------------------------------------|--|
4|----------------------------------------2--------------------------------------------|
3|------2-------2---------0--0---0---0----2--------------------------------------------|
2|--------2---2-----2-------3------3------2--------------------------------------------|
1|----------2-----2------------3----------0--------------------------------------------|

RASGEADO:

D         F#m      G
no quiero estar sin ti
A                                D
si tu no estas aqui me falta el sueño
D         F#m     G
no quiero andar asi
A                                 D
latiendo un corazon de amor sin dueño

F#m                G
si tu no estas aqui no se
A                       D
que diablos hago amandote
F#m                G
si tu no estas aqui sabras
A                        D
que Dios no va a entender porque te vas

D                 F#m                     
derramare mis sueños si algun dia no te tengo
G                     A         D
lo mas grande se hara lo mas pequeño
D                          G           
paseare en un cielo sin estrellas esta vez
A                         F#m     Bm            G
tratando de entender quien hizo un infierno el paraiso
G             A       D
no te vayas nunca porque no 
F#m           G           
no puedo estar sin ti
A                
si tu no estas aqui 
D
me quema el aire

F#m                (silencio) G
si tu no estas aqui            no se
A                       D
que diablos hago amandote
F#m                G
si tu no estas aqui sabras
A                      D
que Dios no va a entender porque te vas

 F#m               G
si tu no estas aqui no se
A                      D
que diablos hago amandote
F#m                
si tu no estas aqui sabras
                     
     G                A
6|---3----------------0---------------------------------------------------------------------|
5|--------------------0---------------------------------------------------------------------|
4|--------------------2---------------------------------------------------------------------|
3|-----0---0----------2---------------------------------------------------------------------|
2|-------3-----3------2---------------------------------------------------------------------|
1|-----------3--------0---------------------------------------------------------------------| 

que Dios no va a entender........por que te vas.....si tu no estas aqui...

                                                  D
6|------------------------------------------------------------------------------------------|
5|-----------------------------4---------2--------------------------------------------------|
4|-------------------------------------------------0----------------------------------------|
3|--------------------------------2---------2------2----------------------------------------|
2|----------------------------------3---------3----3----------------------------------------|
1|------------------------------------2---------2--2----------------------------------------|

Bueno, me tarde haciendo esto, pero todo sea por esa droga que se llama musica, recuerden, 
como dice alexz lora, la musica es un deporte,practiquenlo...cualquier duda o menatada de ma...
pues ahi esta mi e-mail iory_boy@ saludos a la facultad de ingenieria civil, 
a los del 201-C, y a los de mecanica, del 201-M, al daniel barra, por mi camarada...., 
y arriba Poza Rica, Veracruz¡¡¡¡¡¡¡¡
ah, 
se me olvidaba decirles que amo a Sarahi hdz alvz, tal vesz ella nunca lea esto, 
pero si algiuen la conoce pues le dice que aki encontrara algo......ok
cuidense
Suggest correction
Creating personal tab
Creating personal tab
You can edit any tab online and save it as your Personal.

You can edit, replace or remove any tab part or add personal notes – all changes will be seen only by you.

Personal tabs can be accessed anytime from any device, even offline.
Learn more »
Give kudos to tab author, rate the tab!
1 2 3 4 5
comments
print report bad tab
guest
Wanna post a correction for this tab? Suggest correction