Oops, an error
Loading. Please wait.

Amor Y Control bass

358 views 1 this week
no commentswrite comment
1 2 3 4 5
3 more votes to show rating
add to favorites
×
Save as Personal and add changes to this tab that will be seen only by you. Learn more ›
×
You can save this tab as Personal to edit and correct it or add notes. All changes will be seen only by you. Learn more »
launch autoscroll
font size
0
reset
guitar tuner
edit
Autoscroll
slow
fast
+/-
esc
set tempo
stop
Me siento muy contento de poder trancribir este tab, pues llevo
muchisimo tiempo en quererlo hacer y tocar. Esta es mi
interpretacion de esta enorme canción que tanto oia
desde pequeño y que ahora
la puedo oir muchas veces, y no me canso de oirla:


Intro (Despues del solo de clave y teclado)

G -------------------------|
D -------------------------|
A -10------9---10----------| (2 veces)
E ----10-7---8----10-10----|

("Saliendo de del hospital después de ver a mi mamá. luchando contra
un cáncer que no se puede curar"):

G ----------------------------------|
D ------------------9--------10-----|
A -10----10-------9---9---10----10--|
E ----10----10--7-------8-----------|

G --------------------|
D -------12-----------|
A ----12----12-10-----|
E -10-----------------|

("Vi pasar a una familia, al frente iba un señor de edad, una doña,
dos muchachas y varias personas más):

G --------------------------------|
D ----------------9--------10-----|
A -----10-------9---9---10----10--|
E --10----10--7-------8-----------|

G ----------------|
D ----------------|
A ----12-----9----|
E -10-----7-------|

("De la mano del señor un hombre jóven caminaba, cabizbajo y luciendo
arrepentido"):

G ---------------5------7-----------7------|
D ------------5----4-5----5-7----7-----7---|
A -7---7--5-3-----------------5------------|
E ---7-------------------------------------|

("Él era la causa de una discusión familiar, de la que nos enteramos
al oir al señor gritar"):

G --------------------------------------------|
D -------9-----9-----------7-------7----------|
A ----9----6-7---7------7-----7--5-----6-7----|
E -7---------------7--5--------------7--------|

("'Aunque tú seas un ladrón y aunque no tienes razón, yo tengo la
obligación de socorrerte... y por más drogas que uses y por más que
nos abuses la familia y yo tenemos que atenderte"):

G ---------------5-----7-----------------|
D ---9---------5---4-5---5--7---7--------|
A -7---7--5--3----------------5-----6-7--| (2 veces)
E --------------------------------7------|

("OH, OH, OH, OH....")

G ---------------5------7-7--------|
D ------------5----4-5-------------|(2 veces)
A ---7--5--3-----------------5-6-7-|
E -7-------------------------------|

("Sólo quien tiene hijos entiende que el deber de un padre, no acaba
jamás... que el amor de padre y madre no se cansa de entregar"):


G ----------------------------------------------------|
D -------9-----------10-------12-------------12-------|
A ----9-----9----10-----9--10----10-12----12----------| (2 veces)
E -7-----------8-----------------------10-------8-7---|

("Que deseamos para ustedes, lo que nunca hemos tenido"):

G ----------------------------------------|
D -------9------------------9-------------|
A ----9----9--7---7-9----9----9--7---7----|
E -7------------7------7-----------7----7-|

("Que a pesar de los problemas, familia es familia y
 cariño es cariño'"):
G -------------------------------------------------------------------|
D --------10---------12---------------12----------10-----------------|
A ----10------9--10-----10-12-----12-----12----10----9-10--12----6-7-|
E -8--------------------------10------------8-----------------10-----|

("OH, OH, OH, OH...") (2 Veces) Se tocan los mismos arreglos.

("Los vi marcharse con su llanto, su laberinto enfrentando, en la
buena y en la mala, juntos caminando. Y pensé mucho en mi familia,
los quise tanto aquel momento, que sentí que me ahogaba
el sentimiento").

Se tocan los mismos arreglos de la primera parte ("saliendo
del hospital..."), por dos veces.

("Aquel muchacho, y mi pobre madre: dos personas distintas, pero dos
tragedias iguales"):

G ---------------------------5---------7---------5---|
D -------9----------------5----5----7----7----5----5-|
A -----9---9--7---7-5--3---------5----------3--------|
E -8-7----------7------------------------------------|

G ----------------|
D ----------------|
A ---5----5-------|
E -3---3----3-----|

("Cuánto control, y cuánto amor tienen que haber en una casa. Mucho
control y mucho amor para enfrentar a la desgracia."):

G ----------------------------------------------------------------|
D -----------------10-10----10--12---------------10---------------|
A ---10-10----10-8-------8---------12----10---10----10---10----10-|
E -8--------8-------------------------10----8----------8-----8----|

G ----------------------------------------------|
D --------10-10----12---------------10----------|
A -8---8--------10-----10-8-10---10----10-------|
E ---8-------------------------8-----------8----|

("Por más discusiones que hayan dentro e' tu casa.
Por mas que creas que tu amor es causa perdida. Ten la seguridad
de que ellos te quieren y que ese cariño dura toda la vida"):

G ------------------------------------------------------------|
D -------------------10-----12---------------10---------------|
A ---10---10---8---8-----10-----10-8-10---10----10---10-------|
E -8----8----8---8----------------------8----------8----8--10-|

G -------------------------7----------------|
D -----------------------7---7---5----------|
A -7-10-8---8--8-7--7-5--------5---5---5----|
E --------8--------------------------3---5--|

("Cuánto control, y cuanto amor, tienen que haber en una casa. Mucho
control y mucho amor, para enfrentar a la desgracia") Se tocan los
mismos arreglos.

("Mantén amor y control siempre ante la pena. Combinando
la esperanza y el sentimiento. Dando la espalda no se van
los problemas. Ni la impaciencia resuelve los sufrimientos"):

G ------------------------------------------------------------|
D -------------------------10----12-12---------------10-------|
A ---10--------7-10-8---8-----10-------10-8--10---10----10----|
E -8----8-9-10--------8-------------------------8-----------8-|

G ----------------------------------------------------|
D --------------------------------7---7---5-----------|
A -10--------7-10-8---8-8--7-7--5---5---5---5---5-----|
E ----8-8-10--------8-------------------------3---3---|

("Cúanto control, y cuánto amor tienen que haber en una casa.
Mucho control y mucho amor, para enfrentar a la desgracia")

Fin: ("Amor y control")

G --------------------------|
D -10-----------10------12--|
A ----10-7-10-8-----10------| (2 veces)
E --------------------------|

G ----------------------------|
D -------------10----12-------|
A ---10-7-10-8----10----------| Fade out.
E -8---------------------8----|

Esta es una una base. Tiene sus detalles, pero está bien completa.
Espero que les encante. Vivan la vida, disfruten de y con sus
familias. Dios me los bendiga y hasta la proxima.

            
            
Suggest correction
Creating personal tab
Creating personal tab
You can edit any tab online and save it as your Personal.

You can edit, replace or remove any tab part or add personal notes – all changes will be seen only by you.

Personal tabs can be accessed anytime from any device, even offline.
Learn more »
Give kudos to tab author, rate the tab!
1 2 3 4 5
comments
print report bad tab
guest
Wanna post a correction for this tab? Suggest correction