Oops, an error
Loading. Please wait.

Buscando Guayaba bass

version 1
version 1

Whole song

199 views 1 this week
no commentswrite comment
1 2 3 4 5
3 more votes to show rating
add to favorites
×
Save as Personal and add changes to this tab that will be seen only by you. Learn more ›
×
You can save this tab as Personal to edit and correct it or add notes. All changes will be seen only by you. Learn more »
launch autoscroll
font size
0
reset
guitar tuner
edit
Autoscroll
slow
fast
+/-
esc
set tempo
stop
Me imagino que muchos están esperando este tab de bajo de un súper
clásico de la salsa. Tiene algunos detalles, pero está bien
completa y suena casi tan parecido como la canción. Me ha costado,
pero aquí va:

Intro:

G -------------------------|
D ---5---5-5---5---3-3-----|
A -3---5-----5---3---------| (4 veces)
E -------------------------|

G ------------------------------|
D -------------------5-----3-3--|
A -3-1-0-3-3--5-7-5----3-3------|
E ------------------------------|


Versos:

"Me fui pal' monte buscando guayaba,
por la vereda del 8 y el 2"...

G -------------------------------|
D ---2-5-3-5---5-7-3--5---5---3--|
A -3---------5----------5---3-3--|
E -------------------------------|

Y aunque encontré una casa dorada, esa guayaba no la hallaba yo":

G -----------------------------|
D ---2-5-3-5---5-7-3--5---5----|
A -3---------5----------5---3--|
E --------------------------3--|


"Mucho he viajado por todo el mundo,
y nunca nunca pude encontrar"...:

G ----5-----------5-5---------------5--|
D --5---5------3--------3--------5-----|
A ----------3--------3--------3--------|
E -------------------------3-----------|

"Una guayaba que me gustara, y detuviera mi caminar

G ----------------7------------5--|
D ---5-7-------7----6-5-----5-----|
A -7------6-5------------3--------|
E --------------------------------|

"Y aunque encontré una casa dorada, esa guayaba no pude hallar":

G --------------7--------|
D -----------7----6-6-5--|
A -3-1-0--5--------------|
E -----------------------|

Pre-Coro:

G -------------------5-5--|
D ---3---2-7----3-5-------|
A -3---2-----5------------|
E ------------------------|


Coro/Montuno/Solo de boca (Varias veces):

G --------------|--------------5----|
D ---------7----|------------5---5--|
A ------5-----5-|---------3---------|
E -6-5----------|--5-4-3------------|


G -------------7-|--------------5--|
D --8-7-----7----|-7-6-5-----5-----| (my own innovation!)
A -------5-------|--------3--------|
E ---------------|-----------------|


Descarga de timbales (mambo) (12 veces)

G -0-4-2-------2-4-2-----|
D -------0-4-3-----------|
A -----------------------|
E -----------------------|


Fin de la descarga

G --------|
D -3-5----|
A -----3--|
E --------|

"Que tenga sabor que tenga mendo..." (Varias veces se
toca el mismo coro)

Fin de la canción

G -------------9-7------------5-----|
D -10-9-8-7-7-----------5-----------|
A ----------------------------------|
E ----------------------------------|

Esta es la forma básica de la canción. Tiene sus detallitos, pero
está bien completa. Recuerden oir la canción las veces necesarias
y pongan en práctica la creatividad para los solos y mambos.
Agradecimiento especial a SlikkTim, que sin su aporte audiovisual,
no se pudo llevar a cabo la transcripción de esta tablatura.
Que sean felices y ¡¡¡HASTA LA PROXIMA!!!

            
            
Suggest correction
Creating personal tab
Creating personal tab
You can edit any tab online and save it as your Personal.

You can edit, replace or remove any tab part or add personal notes – all changes will be seen only by you.

Personal tabs can be accessed anytime from any device, even offline.
Learn more »
Give kudos to tab author, rate the tab!
1 2 3 4 5
comments
print report bad tab
guest
Wanna post a correction for this tab? Suggest correction