Oops, an error
Loading. Please wait.

Buscando Guayaba bass

version 2
version 2

Whole song

216 views 6 this week
no commentswrite comment
1 2 3 4 5
3 more votes to show rating
add to favorites
×
Save as Personal and add changes to this tab that will be seen only by you. Learn more ›
×
You can save this tab as Personal to edit and correct it or add notes. All changes will be seen only by you. Learn more »
launch autoscroll
font size
0
reset
guitar tuner
edit
Autoscroll
slow
fast
+/-
esc
set tempo
stop
Esta es mi primera transcripción de bajo y originalmente, el bajo,
fue ejecutado por el Maestro Salvador Cuevas en 1978 en el disco Siembra.
Espero la disfruten...!

Intro:

G -------------------------|
D ---5---5-5---5---3-3-----|
A -3---5-----5---3---------| (4 veces)
E -------------------------|

G ------------------------------|
D --------------------5----5-5--|
A -3-1-0-0----0-2-3-5---3--3-3--|
E ------------------------------|

Versos:

ME FUI PAL' MONTE BUSCANDO GUAYABA, POR LA VEREDA DEL 8 Y EL 2.

G ---------------2--------------5---|
D ---2-5-3-5---5---3--5---5-----5---|
A -3---------5----------5---3-------|
E ----------------------------------|

Y AUNQUE ENCONTRÉ UNA CASA DORADA, ESA GUAYABA NO LA HALLABA YO

G ---------------2----------------5-|
D ---2-5-3-5---5---3--5---5----5----|
A -3---------5----------5---3-------|
E --------------------------3-------|

MUCHO HE VIAJADO POR TODO EL MUNDO, Y NUNCA NUNCA PUDE ENCONTRAR,
UNA GUAYABA QUE ME GUSTARA, Y DETUVIERA MI CAMINAR

G --------5---------------5----------------7-------------5---|
D -5---3-------3--------5---------------7-----6-5-----5------|
A ---3------3-----1---3-----7-7------3-------------3---------|
E ------------------------------5-5--------------------------|


"Y aunque encontré una casa dorada, esa guayaba no pude hallar":

G -------------7--------|
D -----------7---6-6-5--|
A --3-1-0--5------------|
E ----------------------|

Pre-Coro:

G -------------------5-5-----|
D ---3---2----0--7-5---------|
A -3---2----0----------------|
E ---------------------------|


Coro:  BUSCADO GUAYABA ANDO YO....

G -------7----------------------------|
D --5--5--7-7----------7-7------------|
A ---5--------3---3--7----------------|
E --------------3---------------------|


Descarga de timbales

G -----------------------|
D ----9-7---------7-9-7--|
A -10-------9--8---------|
E --------10-------------|


Fin de la descarga

G -------|
D -7-9---|
A ----10-|
E -------|

"Que tenga sabor que tenga mengo..."


Final de la canción

G -------------6-7------------5-----|
D -10-9-8-7-7-----------5-----------|
A ----------------------------------|
E ----------------------------------|
Suggest correction
Creating personal tab
Creating personal tab
You can edit any tab online and save it as your Personal.

You can edit, replace or remove any tab part or add personal notes – all changes will be seen only by you.

Personal tabs can be accessed anytime from any device, even offline.
Learn more »
Give kudos to tab author, rate the tab!
1 2 3 4 5
comments
print report bad tab
guest
Wanna post a correction for this tab? Suggest correction