Oops, an error
Loading. Please wait.

Contrabando bass

138 views 1 this week
no commentswrite comment
1 2 3 4 5
3 more votes to show rating
add to favorites
×
Save as Personal and add changes to this tab that will be seen only by you. Learn more ›
×
You can save this tab as Personal to edit and correct it or add notes. All changes will be seen only by you. Learn more »
launch autoscroll
font size
0
reset
guitar tuner
edit
Autoscroll
slow
fast
+/-
esc
set tempo
stop
Alli les va un tremendo son montuno de 1988 cortesia de Ruben Blades
y Son del Solar.

Intro:

G ----------------------------------|
D -----------9------------9---------|
A -7-7---7-7---7-7----7-7-----7-7---|
E -----7------------7---------------|

Para entrar a la canción:

G ----------------------|
D -------7-9------------|
A -7-9-------7----------|
E -----7----------------|

Canción (2 veces):

G ---------------------|
D ----------9----------| (3 veces)
A -7---7-7-------------|
E ---7-----------------|

G --------------------------------------------------|
D -7-----------7-----------7-----------------9------|
A ---7-5---5-5---5-5---5-5---5-5-6-7-7---7-7---7-7--|
E -------5-----------5-----------------7------------|

Despues tocas la entrada a la cancion (a la primera vez que hayas
tocado esto):

Entrada al coro I:

G --------------------|
D --------------------|
A -7-----------9----7-|
E ---7-7-5-7-7---7----|

Coro I (2 veces. En las 2 veces que toques el coro,
tiene dos partes distintas, que se van a explicar en breve):

G -----------------------------|
D ---------------6-------------|
A ---6---5---5-4---------------|
E -7---7---5-------2-----------|

Tocar esto en la primera vez que se  toca el coro:
G ------------------------------|
D ------------------4-----------|
A -4----4-2-2---2-2---2-7-------|
E --2-2-------2-----------------|

Luego vuelves al coro

Tocar esto en la segunda vez que se toca el coro:
G ---------------------|
D -----4---------------|
A -0-2---7-7-----------|
E ---------------------|

Despues toca la cancion 2 veces mas. Luego toca esto varias veces
(es la parte de antes del solo de trombon):

G -----------------7-7---|
D -7-5-----7-5---7-----5-|
A -----4-5-----5---------|
E -----------------------|

G ----------------------|
D -----7-5--------------|
A -4-5------------------|
E ----------------------|

Solo de trombon(Varias veces. Se vale inventar):

G ---9-----9-----------|
D -------7-------------|
A -7---7-----7---------|
E ---------------------|

Cancion (despues de tocar el solo de trombon) (2 veces):

G ------|
D ---10-|
A ------|
E -8----|

G --------------------------------------------|
D -------10-10-------10-------10-10-----------|
A -8---8-------8---8----8---8-------8-7-6-----|
E ---8-----------8--------8-------------------|

G ----------------------------------------|
D ------8-----------8-----------10--------|
A --6-6---6-6---6-6---6-6-7-8-8----8------|
E -6----------6----------------------8-8--|

Fin/Fade out:

G ----------------------|
D ---10----10-----------|
A -8-----8--------------|
E -----8----------------|

Espero que les guste. Les ruego que oigan la cancion las veces que
les sean necesarias para asi llevar bien los ritmos en las partes
menos faciles de esta cancion, que si es muy sencilla. Saludos y
QUE VIVA LA SALSA!!!!!

            
            
Suggest correction
Creating personal tab
Creating personal tab
You can edit any tab online and save it as your Personal.

You can edit, replace or remove any tab part or add personal notes – all changes will be seen only by you.

Personal tabs can be accessed anytime from any device, even offline.
Learn more »
Give kudos to tab author, rate the tab!
1 2 3 4 5
comments
print report bad tab
guest
Wanna post a correction for this tab? Suggest correction