Oops, an error
Loading. Please wait.

Creo En Ti bass

80 views 1 this week
no commentswrite comment
1 2 3 4 5
3 more votes to show rating
add to favorites
×
Save as Personal and add changes to this tab that will be seen only by you. Learn more ›
×
You can save this tab as Personal to edit and correct it or add notes. All changes will be seen only by you. Learn more »
launch autoscroll
font size
0
reset
guitar tuner
edit
Autoscroll
slow
fast
+/-
esc
set tempo
stop
De las pocas canciones de de Rubencito, esta es una de mis
favoritas. Bueno, vamos al grano pues:


Intro/Verso (varias veces):

G ------------9--|
D -7-7---7-7-----|
A -----7---------|
E ---------------|

Coro:

G -------------7------------9-------|
D ------------------7---7-7---7-----|
A -10----10-10---10---7-------------|
E ----10----------------------------|


Cambio I:

G ------------------7--|
D ----7---9--7---------| (2 veces)
A ------7------7-10----|
E -10------------------|

G --------------------------------------9--------------|
D -7-7--11----11---11-----11--9---9---9---9---9--7-7---|
A ---------11----9----9-9-------9---9-------7----------|
E -----------------------------------------------------|

Vuelves a tocar la Intro/cancion por una vez y luego toca el segundo
cambio:

G ---------------------------------10---------------|
D ------------------------------10----10---------7--|
A -8-(nota larga)-8-7-7--10--12----------10--8-8----|
E --------------------------------------------------|

G ----------------------------------------------10-10--|
D ------------12------------12--10-10------------------|
A -10-10--12-----12--10--13--------------8-8-8---------|
E -------------------------------------8---------------|

G -8-8--7-7---7-------9-----------|
D ----------7---7---9------7-7----|
A ----------------7-----7---------|
E --------------------------------|

Luego tocas los versos y el coro, y tocas el cambio I por una vez.
Vuelves a la cancion y despues tocas el coro hasta hacer fade out.
Tiene sus detalles, pero está bien completa y su sonido fue
mejorado, con respecto a la tablatura anterior.
Disfruten del amor, mientras dure, si dicen que su amor dura para
siempre, se estan engañando. ¡¡Hasta la próxima!!

            
            
Suggest correction
Creating personal tab
Creating personal tab
You can edit any tab online and save it as your Personal.

You can edit, replace or remove any tab part or add personal notes – all changes will be seen only by you.

Personal tabs can be accessed anytime from any device, even offline.
Learn more »
Give kudos to tab author, rate the tab!
1 2 3 4 5
comments
print report bad tab
guest
Wanna post a correction for this tab? Suggest correction