Oops, an error
Loading. Please wait.

Dime bass

122 views 1 this week
no commentswrite comment
1 2 3 4 5
3 more votes to show rating
add to favorites
×
Save as Personal and add changes to this tab that will be seen only by you. Learn more ›
×
You can save this tab as Personal to edit and correct it or add notes. All changes will be seen only by you. Learn more »
launch autoscroll
font size
0
reset
guitar tuner
edit
Autoscroll
slow
fast
+/-
esc
set tempo
stop
Otra vez, estamos de vuelta. Ahora con
una de las mejores canciones de Rubencito,
especialmente para sanar "venas abiertas".
¡¡PARA TÍ, MUJER INGRATA!!

Intro (Notas Largas):

G --------------------------------------6-------------|
D -----------------7-----------------9----6-----------|
A ---7----9-----7-----10-9-----9--7----------9--------|
E -7---9-----7--------------7-------------------9--7--|

G ----------------------------6------------------------|
D -----9-7---7--------9-----9---6------------9--7---7--|
A -9-7-----7----10--9---9-7-------9------9-7------7----|
E -----------------------------------9-7---------------|

G ------|
D -9----|
A ---7--|
E ------|

Canción:

"Dime cómo me arranco del alma esta pena de amor..."

G ---------------------------------|
D -7---7-------9------------7---7--|
A ---7---7---9---9--8-8---7---7----|
E ---------7------------6----------|

G -------------|
D -9-6-7-------|
A -------7-7---| **
E -------------|

"Dime cómo me arranco pa' siempre el inmenso dolor de esta
de esta pena de amor..."

G ---------------------------------|
D -7---7-------9------------7---7--|
A ---7---7---9---9--8-8---7---7----|
E ---------7------------6----------|

"Esta pena de amor que por siempre me acompaña, y que
no me deja descansar..."

G ---------------6---------------------|
D -6---6------------------------9---9--|
A --------9---9-----9------9--7---7----|
E ---9------9----------9-7-------------|

"Es la tristeza azul que me dejó tu despedida, y que no me
deja ya soñar... y que muerto en vida me va a dejar..."

G ------------6---------------------------------------6----------|
D -6--------------7----6--------6---------6-----6-----------9----|
A ---6-----9----9---9-----6--------9---9-----------9------9---7--|
E ------9--------------------9-------9-------9-------------------|

"Dime cómo me arranco del alma esta pena de amor... esta pena
de amor... esta pena de amor..." (los mismos arreglos y
estructura)

"Dime cómo me arranco pa' siempre el inmenso dolor... de esta
pena de amor... de esta pena de amor..." (ídem)

Después:

G ------------------------------------------|
D -------------6----------------------------|
A -7-9-7----------9------------------7-7-7--|
E --------7-9--------9-8-7--7-10-9-7--------|

G -------------------|
D --------------7-6--|
A ---4-------7-------|
E -5---7--5----------|

Estribillo (3 veces):

"Dí, dí, dí, dí, ¿¿¿¡¡¡cómo arranco esta pena!!!???.
Dí dí, dí, dí, ¿¿¿¡¡¡cómo aguanto esta pena!!!???"

G ---------------------------------------|
D ------------6---------------------7----|
A ---9-7--------9-------9-7------7----7--|
E -7-----7-9-------9--7------7-5---------|

"¿Cómo me quito de encima, este amor que me envenena?
¿Cómo me quito pa' siempre este amor que me condena?"

G ---------------------------------------|
D ------------6---------------------7----|
A ---9-7--------9-------9-7------7----7--|
E -7-----7-9-------9--7------7-5---------|

Solo de metales (personalmente, mi parte favorita
de la canción):

G --------------------------------------------------|
D --5---5---------7---------5-5-7-5----------7------|
A ----5---5----7-----7--7-7---------7-----7----7----|
E ----------5--------------------------5------------|

Tocar después de la segunda vez:

G ---------------|
D -5---5---7-7---|
A ---5---5-------|
E ---------------|

Luego, tocar esto 2 veces (Solo de metales):

G ------------------------|
D ------------------------|
A ---9---8-7---11---10-9--|
E -7---7-----9----9-------|

G --------------------------------|
D --------------------------------|
A ---(improvisar junto al piano)--|
E -10-----------------------------|

G ---------|
D ---------|
A ---9-7---|
E -7-------|

Fin del solo

G --------------|
D ------7-------|
A --7-7---7-7---|
E --------------|

Coro/Montuno (Tocar varias veces. Incluye la descarga de los
metales. Se vale improvisar...):

            
            
Suggest correction
Creating personal tab
Creating personal tab
You can edit any tab online and save it as your Personal.

You can edit, replace or remove any tab part or add personal notes – all changes will be seen only by you.

Personal tabs can be accessed anytime from any device, even offline.
Learn more »
Give kudos to tab author, rate the tab!
1 2 3 4 5
comments
print report bad tab
guest
Wanna post a correction for this tab? Suggest correction